  0
SECTION
  2
HEADER
  9
$ACADVER
  1
AC1015
  9
$ACADMAINTVER
 70
     6
  9
$DWGCODEPAGE
  3
ANSI_1254
  9
$INSBASE
 10
0.0
 20
0.0
 30
0.0
  9
$EXTMIN
 10
0.0
 20
0.0
 30
0.0
  9
$EXTMAX
 10
279.4
 20
215.9
 30
0.0
  9
$LIMMIN
 10
0.0
 20
0.0
  9
$LIMMAX
 10
279.4
 20
215.9
  9
$ORTHOMODE
 70
     0
  9
$REGENMODE
 70
     1
  9
$FILLMODE
 70
     1
  9
$QTEXTMODE
 70
     0
  9
$MIRRTEXT
 70
     1
  9
$LTSCALE
 40
1.0
  9
$ATTMODE
 70
     1
  9
$TEXTSIZE
 40
3.5
  9
$TRACEWID
 40
1.0
  9
$TEXTSTYLE
  7
Standard
  9
$CLAYER
  8
0
  9
$CELTYPE
  6
ByLayer
  9
$CECOLOR
 62
   256
  9
$CELTSCALE
 40
1.0
  9
$DISPSILH
 70
     0
  9
$DIMSCALE
 40
1.0
  9
$DIMASZ
 40
3.5
  9
$DIMEXO
 40
1.0
  9
$DIMDLI
 40
3.75
  9
$DIMRND
 40
0.0
  9
$DIMDLE
 40
0.0
  9
$DIMEXE
 40
1.0
  9
$DIMTP
 40
0.0
  9
$DIMTM
 40
0.0
  9
$DIMTXT
 40
3.5
  9
$DIMCEN
 40
2.5
  9
$DIMTSZ
 40
0.0
  9
$DIMTOL
 70
     0
  9
$DIMLIM
 70
     0
  9
$DIMTIH
 70
     1
  9
$DIMTOH
 70
     1
  9
$DIMSE1
 70
     0
  9
$DIMSE2
 70
     0
  9
$DIMTAD
 70
     1
  9
$DIMZIN
 70
     0
  9
$DIMBLK
  1

  9
$DIMASO
 70
     1
  9
$DIMSHO
 70
     1
  9
$DIMPOST
  1

  9
$DIMAPOST
  1

  9
$DIMALT
 70
     0
  9
$DIMALTD
 70
     3
  9
$DIMALTF
 40
0.0393700787
  9
$DIMLFAC
 40
1.0
  9
$DIMTOFL
 70
     1
  9
$DIMTVP
 40
0.0
  9
$DIMTIX
 70
     0
  9
$DIMSOXD
 70
     0
  9
$DIMSAH
 70
     0
  9
$DIMBLK1
  1

  9
$DIMBLK2
  1

  9
$DIMSTYLE
  2
ISO-25
  9
$DIMCLRD
 70
     0
  9
$DIMCLRE
 70
     0
  9
$DIMCLRT
 70
     0
  9
$DIMTFAC
 40
1.0
  9
$DIMGAP
 40
1.524
  9
$DIMJUST
 70
     0
  9
$DIMSD1
 70
     0
  9
$DIMSD2
 70
     0
  9
$DIMTOLJ
 70
     0
  9
$DIMTZIN
 70
     0
  9
$DIMALTZ
 70
     0
  9
$DIMALTTZ
 70
     0
  9
$DIMUPT
 70
     0
  9
$DIMDEC
 70
     2
  9
$DIMTDEC
 70
     2
  9
$DIMALTU
 70
     2
  9
$DIMALTTD
 70
     3
  9
$DIMTXSTY
  7
Standard
  9
$DIMAUNIT
 70
     0
  9
$DIMADEC
 70
     2
  9
$DIMALTRND
 40
0.0
  9
$DIMAZIN
 70
     0
  9
$DIMDSEP
 70
    44
  9
$DIMATFIT
 70
     3
  9
$DIMFRAC
 70
     0
  9
$DIMLDRBLK
  1

  9
$DIMLUNIT
 70
     2
  9
$DIMLWD
 70
    -2
  9
$DIMLWE
 70
    -2
  9
$DIMTMOVE
 70
     0
  9
$LUNITS
 70
     2
  9
$LUPREC
 70
     2
  9
$SKETCHINC
 40
1.0
  9
$FILLETRAD
 40
10.0
  9
$AUNITS
 70
     0
  9
$AUPREC
 70
     2
  9
$MENU
  1
.
  9
$ELEVATION
 40
0.0
  9
$PELEVATION
 40
0.0
  9
$THICKNESS
 40
0.0
  9
$LIMCHECK
 70
     0
  9
$CHAMFERA
 40
0.0
  9
$CHAMFERB
 40
0.0
  9
$CHAMFERC
 40
0.0
  9
$CHAMFERD
 40
0.0
  9
$SKPOLY
 70
     0
  9
$TDCREATE
 40
2458985.705425695
  9
$TDUCREATE
 40
2458985.580425695
  9
$TDUPDATE
 40
2458985.705426146
  9
$TDUUPDATE
 40
2458985.580426146
  9
$TDINDWG
 40
0.0000000116
  9
$TDUSRTIMER
 40
0.0000000116
  9
$USRTIMER
 70
     1
  9
$ANGBASE
 50
0.0
  9
$ANGDIR
 70
     0
  9
$PDMODE
 70
     0
  9
$PDSIZE
 40
-1.0
  9
$PLINEWID
 40
0.0
  9
$SPLFRAME
 70
     0
  9
$SPLINETYPE
 70
     6
  9
$SPLINESEGS
 70
     8
  9
$HANDSEED
  5
EB
  9
$SURFTAB1
 70
     6
  9
$SURFTAB2
 70
     6
  9
$SURFTYPE
 70
     6
  9
$SURFU
 70
     6
  9
$SURFV
 70
     6
  9
$UCSBASE
  2

  9
$UCSNAME
  2

  9
$UCSORG
 10
0.0
 20
0.0
 30
0.0
  9
$UCSXDIR
 10
1.0
 20
0.0
 30
0.0
  9
$UCSYDIR
 10
0.0
 20
1.0
 30
0.0
  9
$UCSORTHOREF
  2

  9
$UCSORTHOVIEW
 70
     0
  9
$UCSORGTOP
 10
0.0
 20
0.0
 30
0.0
  9
$UCSORGBOTTOM
 10
0.0
 20
0.0
 30
0.0
  9
$UCSORGLEFT
 10
0.0
 20
0.0
 30
0.0
  9
$UCSORGRIGHT
 10
0.0
 20
0.0
 30
0.0
  9
$UCSORGFRONT
 10
0.0
 20
0.0
 30
0.0
  9
$UCSORGBACK
 10
0.0
 20
0.0
 30
0.0
  9
$PUCSBASE
  2

  9
$PUCSNAME
  2

  9
$PUCSORG
 10
0.0
 20
0.0
 30
0.0
  9
$PUCSXDIR
 10
1.0
 20
0.0
 30
0.0
  9
$PUCSYDIR
 10
0.0
 20
1.0
 30
0.0
  9
$PUCSORTHOREF
  2

  9
$PUCSORTHOVIEW
 70
     0
  9
$PUCSORGTOP
 10
0.0
 20
0.0
 30
0.0
  9
$PUCSORGBOTTOM
 10
0.0
 20
0.0
 30
0.0
  9
$PUCSORGLEFT
 10
0.0
 20
0.0
 30
0.0
  9
$PUCSORGRIGHT
 10
0.0
 20
0.0
 30
0.0
  9
$PUCSORGFRONT
 10
0.0
 20
0.0
 30
0.0
  9
$PUCSORGBACK
 10
0.0
 20
0.0
 30
0.0
  9
$USERI1
 70
     0
  9
$USERI2
 70
     0
  9
$USERI3
 70
     0
  9
$USERI4
 70
     0
  9
$USERI5
 70
     0
  9
$USERR1
 40
0.0
  9
$USERR2
 40
0.0
  9
$USERR3
 40
0.0
  9
$USERR4
 40
0.0
  9
$USERR5
 40
0.0
  9
$WORLDVIEW
 70
     1
  9
$SHADEDGE
 70
     3
  9
$SHADEDIF
 70
    70
  9
$TILEMODE
 70
     1
  9
$MAXACTVP
 70
    64
  9
$PINSBASE
 10
0.0
 20
0.0
 30
0.0
  9
$PLIMCHECK
 70
     0
  9
$PEXTMIN
 10
1.0000000000E+20
 20
1.0000000000E+20
 30
1.0000000000E+20
  9
$PEXTMAX
 10
-1.0000000000E+20
 20
-1.0000000000E+20
 30
-1.0000000000E+20
  9
$PLIMMIN
 10
0.0
 20
0.0
  9
$PLIMMAX
 10
420.0
 20
297.0
  9
$UNITMODE
 70
     0
  9
$VISRETAIN
 70
     1
  9
$PLINEGEN
 70
     0
  9
$PSLTSCALE
 70
     1
  9
$TREEDEPTH
 70
  3020
  9
$CMLSTYLE
  2
Standard
  9
$CMLJUST
 70
     0
  9
$CMLSCALE
 40
20.0
  9
$PROXYGRAPHICS
 70
     1
  9
$MEASUREMENT
 70
     1
  9
$CELWEIGHT
370
    -1
  9
$ENDCAPS
280
     0
  9
$JOINSTYLE
280
     0
  9
$LWDISPLAY
290
     1
  9
$INSUNITS
 70
     4
  9
$HYPERLINKBASE
  1

  9
$STYLESHEET
  1

  9
$XEDIT
290
     1
  9
$CEPSNTYPE
380
     0
  9
$PSTYLEMODE
290
     1
  9
$FINGERPRINTGUID
  2
{f018e57d-096b-459a-b902-0e1e94634ebb}
  9
$VERSIONGUID
  2
{FAEB1C32-E019-11D5-929B-00C0DF256EC4}
  9
$EXTNAMES
290
     1
  9
$PSVPSCALE
 40
0.0
  9
$OLESTARTUP
290
     0
  0
ENDSEC
  0
SECTION
  2
CLASSES
  0
CLASS
  1
ACDBDICTIONARYWDFLT
  2
AcDbDictionaryWithDefault
  3
ObjectDBX Classes
 90
        0
280
     0
281
     0
  0
CLASS
  1
VISUALSTYLE
  2
AcDbVisualStyle
  3
ObjectDBX Classes
 90
     4095
280
     0
281
     0
  0
CLASS
  1
MATERIAL
  2
AcDbMaterial
  3
ObjectDBX Classes
 90
     1153
280
     0
281
     0
  0
CLASS
  1
SCALE
  2
AcDbScale
  3
ObjectDBX Classes
 90
     1153
280
     0
281
     0
  0
CLASS
  1
TABLESTYLE
  2
AcDbTableStyle
  3
ObjectDBX Classes
 90
     4095
280
     0
281
     0
  0
CLASS
  1
MLEADERSTYLE
  2
AcDbMLeaderStyle
  3
ACDB_MLEADERSTYLE_CLASS
 90
     4095
280
     0
281
     0
  0
CLASS
  1
SUN
  2
AcDbSun
  3
SCENEOE
 90
     1153
280
     0
281
     0
  0
CLASS
  1
ACDBPLACEHOLDER
  2
AcDbPlaceHolder
  3
ObjectDBX Classes
 90
        0
280
     0
281
     0
  0
CLASS
  1
LAYOUT
  2
AcDbLayout
  3
ObjectDBX Classes
 90
        0
280
     0
281
     0
  0
ENDSEC
  0
SECTION
  2
TABLES
  0
TABLE
  2
VPORT
  5
8
330
0
100
AcDbSymbolTable
 70
     1
  0
VPORT
  5
29
330
8
100
AcDbSymbolTableRecord
100
AcDbViewportTableRecord
  2
*Active
 70
     0
 10
0.0
 20
0.0
 11
1.0
 21
1.0
 12
139.7
 22
107.95
 13
0.0
 23
0.0
 14
10.0
 24
10.0
 15
10.0
 25
10.0
 16
0.0
 26
0.0
 36
1.0
 17
0.0
 27
0.0
 37
0.0
 40
215.9
 41
1.2941176471
 42
50.0
 43
0.0
 44
0.0
 50
0.0
 51
0.0
 71
     0
 72
  2000
 73
     1
 74
     3
 75
     0
 76
     0
 77
     0
 78
     0
281
     0
 65
     1
110
0.0
120
0.0
130
0.0
111
1.0
121
0.0
131
0.0
112
0.0
122
1.0
132
0.0
 79
     0
146
0.0
  0
ENDTAB
  0
TABLE
  2
LTYPE
  5
5
330
0
100
AcDbSymbolTable
 70
     6
  0
LTYPE
  5
14
330
5
100
AcDbSymbolTableRecord
100
AcDbLinetypeTableRecord
  2
ByBlock
 70
     0
  3

 72
    65
 73
     0
 40
0.0
  0
LTYPE
  5
15
330
5
100
AcDbSymbolTableRecord
100
AcDbLinetypeTableRecord
  2
ByLayer
 70
     0
  3

 72
    65
 73
     0
 40
0.0
  0
LTYPE
  5
16
330
5
100
AcDbSymbolTableRecord
100
AcDbLinetypeTableRecord
  2
Continuous
 70
     0
  3
Solid line
 72
    65
 73
     0
 40
0.0
  0
LTYPE
  5
6E
330
5
100
AcDbSymbolTableRecord
100
AcDbLinetypeTableRecord
  2
HIDDEN
 70
     0
  3
Hidden __ __ __ __ __ __ __ __ __ __ __ __ __ __
 72
    65
 73
     2
 40
1.905
 49
1.27
 74
     0
 49
-0.635
 74
     0
  0
LTYPE
  5
6F
330
5
100
AcDbSymbolTableRecord
100
AcDbLinetypeTableRecord
  2
PHANTOM
 70
     0
  3
Phantom ______  __  __  ______  __  __  ______
 72
    65
 73
     6
 40
12.7
 49
6.35
 74
     0
 49
-1.27
 74
     0
 49
1.27
 74
     0
 49
-1.27
 74
     0
 49
1.27
 74
     0
 49
-1.27
 74
     0
  0
LTYPE
  5
70
330
5
100
AcDbSymbolTableRecord
100
AcDbLinetypeTableRecord
  2
CENTER
 70
     0
  3
Center ____ _ ____ _ ____ _ ____ _ ____ _ ____
 72
    65
 73
     4
 40
10.16
 49
6.35
 74
     0
 49
-1.27
 74
     0
 49
1.27
 74
     0
 49
-1.27
 74
     0
  0
LTYPE
  5
71
330
5
100
AcDbSymbolTableRecord
100
AcDbLinetypeTableRecord
  2
CENTERX2
 70
     0
  3
Center (2x) ________  __  ________  __  _____
 72
    65
 73
     4
 40
20.32
 49
12.7
 74
     0
 49
-2.54
 74
     0
 49
2.54
 74
     0
 49
-2.54
 74
     0
  0
LTYPE
  5
72
330
5
100
AcDbSymbolTableRecord
100
AcDbLinetypeTableRecord
  2
DOT2
 70
     0
  3
Dot (.5x) ........................................
 72
    65
 73
     2
 40
0.635
 49
0.0
 74
     0
 49
-0.635
 74
     0
  0
ENDTAB
  0
TABLE
  2
LAYER
  5
2
330
0
100
AcDbSymbolTable
 70
    17
  0
LAYER
  5
10
330
2
100
AcDbSymbolTableRecord
100
AcDbLayerTableRecord
  2
0
 70
     0
 62
     7
  6
Continuous
370
    -3
390
F
  0
LAYER
  5
73
330
2
100
AcDbSymbolTableRecord
100
AcDbLayerTableRecord
  2
FORMAT
 70
     0
 62
     7
  6
Continuous
370
    -3
390
F
  0
LAYER
  5
74
330
2
100
AcDbSymbolTableRecord
100
AcDbLayerTableRecord
  2
YARDIMCI_GEOMETRI
 70
     0
 62
    -6
  6
Continuous
290
     0
370
    -3
390
F
  0
LAYER
  5
75
330
2
100
AcDbSymbolTableRecord
100
AcDbLayerTableRecord
  2
SAYFA_CERCEVESI
 70
     0
 62
     7
  6
Continuous
370
    25
390
F
  0
LAYER
  5
76
330
2
100
AcDbSymbolTableRecord
100
AcDbLayerTableRecord
  2
ANTET
 70
     0
 62
     7
  6
Continuous
370
    -3
390
F
  0
LAYER
  5
77
330
2
100
AcDbSymbolTableRecord
100
AcDbLayerTableRecord
  2
OLCU
 70
     0
 62
   150
  6
Continuous
370
    -3
390
F
  0
LAYER
  5
78
330
2
100
AcDbSymbolTableRecord
100
AcDbLayerTableRecord
  2
METIN
 70
     0
 62
    96
  6
Continuous
370
    -3
390
F
  0
LAYER
  5
79
330
2
100
AcDbSymbolTableRecord
100
AcDbLayerTableRecord
  2
BALON
 70
     0
 62
     5
  6
Continuous
370
    -3
390
F
  0
LAYER
  5
7A
330
2
100
AcDbSymbolTableRecord
100
AcDbLayerTableRecord
  2
VURGU
 70
     0
 62
     7
  6
Continuous
370
    -3
390
F
  0
LAYER
  5
7B
330
2
100
AcDbSymbolTableRecord
100
AcDbLayerTableRecord
  2
SILIK
 70
     0
 62
     7
  6
Continuous
370
    -3
390
F
  0
LAYER
  5
7C
330
2
100
AcDbSymbolTableRecord
100
AcDbLayerTableRecord
  2
MODEL
 70
     0
 62
     7
  6
Continuous
370
    -3
390
F
  0
LAYER
  5
7D
330
2
100
AcDbSymbolTableRecord
100
AcDbLayerTableRecord
  2
DETAYLANDıRMA
 70
     0
 62
   190
  6
Continuous
370
    -3
390
F
  0
LAYER
  5
7E
330
2
100
AcDbSymbolTableRecord
100
AcDbLayerTableRecord
  2
TOLERANS
 70
     0
 62
   230
  6
Continuous
370
    -3
390
F
  0
LAYER
  5
7F
330
2
100
AcDbSymbolTableRecord
100
AcDbLayerTableRecord
  2
MERKEZ_CIZGILERI
 70
     0
 62
    30
  6
Continuous
370
    -3
390
F
  0
LAYER
  5
80
330
2
100
AcDbSymbolTableRecord
100
AcDbLayerTableRecord
  2
KESIT-DETAY_CIZGILERI
 70
     0
 62
     7
  6
Continuous
370
    -3
390
F
  0
LAYER
  5
81
330
2
100
AcDbSymbolTableRecord
100
AcDbLayerTableRecord
  2
\U+041E\U+0421\U+0415\U+0412\U+042B\U+0415
 70
     0
 62
     7
  6
Continuous
370
    -3
390
F
  0
LAYER
  5
82
330
2
100
AcDbSymbolTableRecord
100
AcDbLayerTableRecord
  2
\U+0412\U+041E\U+0414\U+042F\U+041D\U+042B\U+0415_\U+0417\U+041D\U+0410\U+041A\U+0418
 70
     0
 62
    11
  6
Continuous
370
    -3
390
F
  0
ENDTAB
  0
TABLE
  2
STYLE
  5
3
330
0
100
AcDbSymbolTable
 70
     1
  0
STYLE
  5
11
330
3
100
AcDbSymbolTableRecord
100
AcDbTextStyleTableRecord
  2
Standard
 70
     0
 40
0.0
 41
1.0
 50
0.0
 71
     0
 42
3.5
  3
txt
  4

  0
ENDTAB
  0
TABLE
  2
VIEW
  5
6
330
0
100
AcDbSymbolTable
 70
     0
  0
ENDTAB
  0
TABLE
  2
UCS
  5
7
330
0
100
AcDbSymbolTable
 70
     0
  0
ENDTAB
  0
TABLE
  2
APPID
  5
9
330
0
100
AcDbSymbolTable
 70
     1
  0
APPID
  5
12
330
9
100
AcDbSymbolTableRecord
100
AcDbRegAppTableRecord
  2
ACAD
 70
     0
  0
ENDTAB
  0
TABLE
  2
DIMSTYLE
  5
A
330
0
100
AcDbSymbolTable
 70
     1
100
AcDbDimStyleTable
  0
DIMSTYLE
105
27
330
A
100
AcDbSymbolTableRecord
100
AcDbDimStyleTableRecord
  2
ISO-25
 70
     0
 41
2.5
 42
0.625
 43
3.75
 44
1.25
 73
     0
 74
     0
 77
     1
 78
     8
140
2.5
141
2.5
143
0.0393700787
147
0.625
171
     3
172
     1
178
     0
271
     2
272
     2
274
     3
278
    44
283
     0
284
     8
340
11
  0
ENDTAB
  0
TABLE
  2
BLOCK_RECORD
  5
1
330
0
100
AcDbSymbolTable
 70
     2
  0
BLOCK_RECORD
  5
1F
330
1
100
AcDbSymbolTableRecord
100
AcDbBlockTableRecord
  2
*Model_Space
340
22
  0
BLOCK_RECORD
  5
1B
330
1
100
AcDbSymbolTableRecord
100
AcDbBlockTableRecord
  2
*Paper_Space
340
1E
  0
BLOCK_RECORD
  5
23
330
1
100
AcDbSymbolTableRecord
100
AcDbBlockTableRecord
  2
*Paper_Space0
340
26
  0
BLOCK_RECORD
  5
88
330
1
100
AcDbSymbolTableRecord
100
AcDbBlockTableRecord
  2
SW_CENTERMARKSYMBOL_0
340
0
102
{BLKREFS
331
93
102
}
  0
ENDTAB
  0
ENDSEC
  0
SECTION
  2
BLOCKS
  0
BLOCK
  5
20
330
1F
100
AcDbEntity
  8
0
100
AcDbBlockBegin
  2
*Model_Space
 70
     0
 10
0.0
 20
0.0
 30
0.0
  3
*Model_Space
  1

  0
ENDBLK
  5
21
330
1F
100
AcDbEntity
  8
0
100
AcDbBlockEnd
  0
BLOCK
  5
1C
330
1B
100
AcDbEntity
 67
     1
  8
0
100
AcDbBlockBegin
  2
*Paper_Space
 70
     0
 10
0.0
 20
0.0
 30
0.0
  3
*Paper_Space
  1

  0
ENDBLK
  5
1D
330
1B
100
AcDbEntity
 67
     1
  8
0
100
AcDbBlockEnd
  0
BLOCK
  5
24
330
23
100
AcDbEntity
  8
0
100
AcDbBlockBegin
  2
*Paper_Space0
 70
     0
 10
0.0
 20
0.0
 30
0.0
  3
*Paper_Space0
  1

  0
ENDBLK
  5
25
330
23
100
AcDbEntity
  8
0
100
AcDbBlockEnd
  0
BLOCK
  5
89
330
88
100
AcDbEntity
  8
0
100
AcDbBlockBegin
  2
SW_CENTERMARKSYMBOL_0
 70
     0
 10
0.0
 20
0.0
 30
0.0
  3
SW_CENTERMARKSYMBOL_0
  1

  0
LINE
  5
8B
330
88
100
AcDbEntity
  8
FORMAT
 62
     0
100
AcDbLine
 10
0.0
 20
0.0
 30
0.0
 11
0.0
 21
2.5
 31
0.0
  0
LINE
  5
8C
330
88
100
AcDbEntity
  8
FORMAT
 62
     0
100
AcDbLine
 10
0.0
 20
0.0
 30
0.0
 11
-2.5
 21
0.0
 31
0.0
  0
LINE
  5
8D
330
88
100
AcDbEntity
  8
FORMAT
 62
     0
100
AcDbLine
 10
0.0
 20
0.0
 30
0.0
 11
0.0
 21
-2.5
 31
0.0
  0
LINE
  5
8E
330
88
100
AcDbEntity
  8
FORMAT
 62
     0
100
AcDbLine
 10
0.0
 20
0.0
 30
0.0
 11
2.5
 21
0.0
 31
0.0
  0
LINE
  5
8F
330
88
100
AcDbEntity
  8
FORMAT
 62
     0
100
AcDbLine
 10
0.0
 20
5.0
 30
0.0
 11
0.0
 21
57.5
 31
0.0
  0
LINE
  5
90
330
88
100
AcDbEntity
  8
FORMAT
 62
     0
100
AcDbLine
 10
-5.0
 20
0.0
 30
0.0
 11
-57.5
 21
0.0
 31
0.0
  0
LINE
  5
91
330
88
100
AcDbEntity
  8
FORMAT
 62
     0
100
AcDbLine
 10
0.0
 20
-5.0
 30
0.0
 11
0.0
 21
-57.5
 31
0.0
  0
LINE
  5
92
330
88
100
AcDbEntity
  8
FORMAT
 62
     0
100
AcDbLine
 10
5.0
 20
0.0
 30
0.0
 11
57.5
 21
0.0
 31
0.0
  0
ENDBLK
  5
8A
330
88
100
AcDbEntity
  8
0
100
AcDbBlockEnd
  0
ENDSEC
  0
SECTION
  2
ENTITIES
  0
CIRCLE
  5
83
330
1F
100
AcDbEntity
  8
0
  6
Continuous
 62
     7
370
    25
100
AcDbCircle
 10
136.0804557792
 20
118.8813202377
 30
0.0
 40
55.00000000000001
  0
CIRCLE
  5
84
330
1F
100
AcDbEntity
  8
0
  6
Continuous
 62
     7
370
    25
100
AcDbCircle
 10
136.0804557792
 20
118.8813202377
 30
0.0
 40
48.40000000000001
  0
CIRCLE
  5
85
330
1F
100
AcDbEntity
  8
0
  6
Continuous
 62
     7
370
    25
100
AcDbCircle
 10
136.0804557792
 20
118.8813202377
 30
0.0
 40
48.13302686571001
  0
CIRCLE
  5
86
330
1F
100
AcDbEntity
  8
0
  6
Continuous
 62
     7
370
    25
100
AcDbCircle
 10
136.0804557792
 20
118.8813202377
 30
0.0
 40
27.96697313429004
  0
CIRCLE
  5
87
330
1F
100
AcDbEntity
  8
0
  6
Continuous
 62
     7
370
    25
100
AcDbCircle
 10
136.0804557792
 20
118.8813202377
 30
0.0
 40
27.70000000000002
  0
INSERT
  5
93
330
1F
100
AcDbEntity
  8
FORMAT
 62
     7
100
AcDbBlockReference
  2
SW_CENTERMARKSYMBOL_0
 10
136.0804557792
 20
118.8813202377
 30
0.0
  0
LINE
  5
94
330
1F
100
AcDbEntity
  8
0
  6
Continuous
 62
     7
370
    25
100
AcDbLine
 10
-128.2731348871
 20
173.8813199397
 30
0.0
 11
-209.9418992399
 21
173.8813199397
 31
0.0
  0
LINE
  5
95
330
1F
100
AcDbEntity
  8
0
  6
Continuous
 62
     7
370
    25
100
AcDbLine
 10
-209.9418992399
 20
63.8813205357
 30
0.0
 11
-128.2731348871
 21
63.8813205357
 31
0.0
  0
ARC
  5
96
330
1F
100
AcDbEntity
  8
0
  6
Continuous
 62
     7
370
    25
100
AcDbCircle
 10
-128.2731353349
 20
171.8813202377
 30
0.0
 40
2.0
100
AcDbArc
 50
71.192198873
 51
90.0
  0
ARC
  5
97
330
1F
100
AcDbEntity
  8
0
  6
Continuous
 62
     7
370
    25
100
AcDbCircle
 10
-128.2731353349
 20
65.8813202377
 30
0.0
 40
2.000000000000015
100
AcDbArc
 50
270.0
 51
288.807801127
  0
LINE
  5
98
330
1F
100
AcDbEntity
  8
0
  6
Continuous
 62
     7
370
    25
100
AcDbLine
 10
-127.628346741
 20
63.9881097074
 30
0.0
 11
-59.2554489373
 21
87.2745305594
 31
0.0
  0
LINE
  5
99
330
1F
100
AcDbEntity
  8
0
  6
Continuous
 62
     7
370
    25
100
AcDbLine
 10
-59.2554489373
 20
150.488109916
 30
0.0
 11
-127.628346741
 21
173.774530768
 31
0.0
  0
ARC
  5
9A
330
1F
100
AcDbEntity
  8
0
  6
Continuous
 62
     7
370
    25
100
AcDbCircle
 10
-58.6106598521
 20
152.3813202377
 30
0.0
 40
2.0
100
AcDbArc
 50
251.192198873
 51
270.0
  0
ARC
  5
9B
330
1F
100
AcDbEntity
  8
0
  6
Continuous
 62
     7
370
    25
100
AcDbCircle
 10
-58.6106598521
 20
85.3813202377
 30
0.0
 40
2.0
100
AcDbArc
 50
90.0
 51
108.807801127
  0
LINE
  5
9C
330
1F
100
AcDbEntity
  8
0
  6
Continuous
 62
     7
370
    25
100
AcDbLine
 10
4.0581023099
 20
150.3813207444
 30
0.0
 11
-58.6106607912
 21
150.3813207444
 31
0.0
  0
LINE
  5
9D
330
1F
100
AcDbEntity
  8
0
  6
Continuous
 62
     7
370
    25
100
AcDbLine
 10
-58.6106607912
 20
87.3813197311
 30
0.0
 11
4.0581023099
 21
87.3813197311
 31
0.0
  0
LINE
  5
9E
330
1F
100
AcDbEntity
  8
0
  6
Continuous
 62
     7
370
    25
100
AcDbLine
 10
-209.9418992399
 20
173.8813199397
 30
0.0
 11
-209.9418992399
 21
63.8813205357
 31
0.0
  0
LINE
  5
9F
330
1F
100
AcDbEntity
  8
0
  6
Continuous
 62
     7
370
    25
100
AcDbLine
 10
4.0581023099
 20
150.3813207444
 30
0.0
 11
4.0581023099
 21
87.3813197311
 31
0.0
  0
LINE
  5
A0
330
1F
100
AcDbEntity
  8
0
  6
Continuous
 62
     1
370
    25
100
AcDbLine
 10
-128.2731348871
 20
173.8813199397
 30
0.0
 11
-128.2731348871
 21
63.8813205357
 31
0.0
  0
LINE
  5
A1
330
1F
100
AcDbEntity
  8
0
  6
Continuous
 62
     1
370
    25
100
AcDbLine
 10
-127.628346741
 20
173.774530768
 30
0.0
 11
-127.628346741
 21
63.9881097074
 31
0.0
  0
LINE
  5
A2
330
1F
100
AcDbEntity
  8
0
  6
Continuous
 62
     1
370
    25
100
AcDbLine
 10
-59.2554489373
 20
150.488109916
 30
0.0
 11
-59.2554489373
 21
87.2745305594
 31
0.0
  0
LINE
  5
A3
330
1F
100
AcDbEntity
  8
0
  6
Continuous
 62
     1
370
    25
100
AcDbLine
 10
-58.6106607912
 20
150.3813207444
 30
0.0
 11
-58.6106607912
 21
87.3813197311
 31
0.0
  0
LINE
  5
A4
330
1F
100
AcDbEntity
  8
0
  6
Continuous
 62
     7
370
    25
100
AcDbLine
 10
191.0804554812
 20
336.7484738178
 30
0.0
 11
191.0804554812
 21
418.4172381706
 31
0.0
  0
LINE
  5
A5
330
1F
100
AcDbEntity
  8
0
  6
Continuous
 62
     7
370
    25
100
AcDbLine
 10
81.0804560772
 20
418.4172381706
 30
0.0
 11
81.0804560772
 21
336.7484738178
 31
0.0
  0
ARC
  5
A6
330
1F
100
AcDbEntity
  8
0
  6
Continuous
 62
     7
370
    25
100
AcDbCircle
 10
189.0804557792
 20
336.7484742656
 30
0.0
 40
2.000000000000022
100
AcDbArc
 50
341.192198873
 51
0.0
  0
ARC
  5
A7
330
1F
100
AcDbEntity
  8
0
  6
Continuous
 62
     7
370
    25
100
AcDbCircle
 10
83.0804557792
 20
336.7484742656
 30
0.0
 40
2.000000000000036
100
AcDbArc
 50
180.0
 51
198.807801127
  0
LINE
  5
A8
330
1F
100
AcDbEntity
  8
0
  6
Continuous
 62
     7
370
    25
100
AcDbLine
 10
81.1872452489
 20
336.1036856718
 30
0.0
 11
104.4736661009
 21
267.730787868
 31
0.0
  0
LINE
  5
A9
330
1F
100
AcDbEntity
  8
0
  6
Continuous
 62
     7
370
    25
100
AcDbLine
 10
167.6872454575
 20
267.730787868
 30
0.0
 11
190.9736663095
 21
336.1036856718
 31
0.0
  0
ARC
  5
AA
330
1F
100
AcDbEntity
  8
0
  6
Continuous
 62
     7
370
    25
100
AcDbCircle
 10
169.5804557792
 20
267.0859987828
 30
0.0
 40
2.000000000000004
100
AcDbArc
 50
161.192198873
 51
180.0
  0
ARC
  5
AB
330
1F
100
AcDbEntity
  8
0
  6
Continuous
 62
     7
370
    25
100
AcDbCircle
 10
102.5804557792
 20
267.0859987828
 30
0.0
 40
2.000000000000004
100
AcDbArc
 50
0.0
 51
18.807801127
  0
LINE
  5
AC
330
1F
100
AcDbEntity
  8
0
  6
Continuous
 62
     7
370
    25
100
AcDbLine
 10
167.5804562858
 20
204.4172366209
 30
0.0
 11
167.5804562858
 21
267.085999722
 31
0.0
  0
LINE
  5
AD
330
1F
100
AcDbEntity
  8
0
  6
Continuous
 62
     7
370
    25
100
AcDbLine
 10
104.5804552725
 20
267.085999722
 30
0.0
 11
104.5804552725
 21
204.4172366209
 31
0.0
  0
LINE
  5
AE
330
1F
100
AcDbEntity
  8
0
  6
Continuous
 62
     7
370
    25
100
AcDbLine
 10
191.0804554812
 20
418.4172381706
 30
0.0
 11
81.0804560772
 21
418.4172381706
 31
0.0
  0
LINE
  5
AF
330
1F
100
AcDbEntity
  8
0
  6
Continuous
 62
     7
370
    25
100
AcDbLine
 10
167.5804562858
 20
204.4172366209
 30
0.0
 11
104.5804552725
 21
204.4172366209
 31
0.0
  0
LINE
  5
B0
330
1F
100
AcDbEntity
  8
0
  6
Continuous
 62
     1
370
    25
100
AcDbLine
 10
191.0804554812
 20
336.7484738178
 30
0.0
 11
81.0804560772
 21
336.7484738178
 31
0.0
  0
LINE
  5
B1
330
1F
100
AcDbEntity
  8
0
  6
Continuous
 62
     1
370
    25
100
AcDbLine
 10
190.9736663095
 20
336.1036856718
 30
0.0
 11
81.1872452489
 21
336.1036856718
 31
0.0
  0
LINE
  5
B2
330
1F
100
AcDbEntity
  8
0
  6
Continuous
 62
     1
370
    25
100
AcDbLine
 10
167.6872454575
 20
267.730787868
 30
0.0
 11
104.4736661009
 21
267.730787868
 31
0.0
  0
LINE
  5
B3
330
1F
100
AcDbEntity
  8
0
  6
Continuous
 62
     1
370
    25
100
AcDbLine
 10
167.5804562858
 20
267.085999722
 30
0.0
 11
104.5804552725
 21
267.085999722
 31
0.0
  0
LINE
  5
B4
330
1F
100
AcDbEntity
  8
0
  6
Continuous
 62
     7
370
    25
100
AcDbLine
 10
402.4748041471
 20
63.8813205357
 30
0.0
 11
484.1435684999
 21
63.8813205357
 31
0.0
  0
LINE
  5
B5
330
1F
100
AcDbEntity
  8
0
  6
Continuous
 62
     7
370
    25
100
AcDbLine
 10
484.1435684999
 20
173.8813199397
 30
0.0
 11
402.4748041471
 21
173.8813199397
 31
0.0
  0
ARC
  5
B6
330
1F
100
AcDbEntity
  8
0
  6
Continuous
 62
     7
370
    25
100
AcDbCircle
 10
402.474804595
 20
65.8813202377
 30
0.0
 40
2.000000000000024
100
AcDbArc
 50
251.192198873
 51
270.0
  0
ARC
  5
B7
330
1F
100
AcDbEntity
  8
0
  6
Continuous
 62
     7
370
    25
100
AcDbCircle
 10
402.474804595
 20
171.8813202377
 30
0.0
 40
2.000000000000004
100
AcDbArc
 50
90.0
 51
108.807801127
  0
LINE
  5
B8
330
1F
100
AcDbEntity
  8
0
  6
Continuous
 62
     7
370
    25
100
AcDbLine
 10
401.8300160011
 20
173.774530768
 30
0.0
 11
333.4571181973
 21
150.488109916
 31
0.0
  0
LINE
  5
B9
330
1F
100
AcDbEntity
  8
0
  6
Continuous
 62
     7
370
    25
100
AcDbLine
 10
333.4571181973
 20
87.2745305594
 30
0.0
 11
401.8300160011
 21
63.9881097074
 31
0.0
  0
ARC
  5
BA
330
1F
100
AcDbEntity
  8
0
  6
Continuous
 62
     7
370
    25
100
AcDbCircle
 10
332.8123291122
 20
85.3813202377
 30
0.0
 40
2.000000000000004
100
AcDbArc
 50
71.192198873
 51
90.0
  0
ARC
  5
BB
330
1F
100
AcDbEntity
  8
0
  6
Continuous
 62
     7
370
    25
100
AcDbCircle
 10
332.8123291122
 20
152.3813202377
 30
0.0
 40
2.000000000000004
100
AcDbArc
 50
270.0
 51
288.807801127
  0
LINE
  5
BC
330
1F
100
AcDbEntity
  8
0
  6
Continuous
 62
     7
370
    25
100
AcDbLine
 10
270.1435669502
 20
87.3813197311
 30
0.0
 11
332.8123300513
 21
87.3813197311
 31
0.0
  0
LINE
  5
BD
330
1F
100
AcDbEntity
  8
0
  6
Continuous
 62
     7
370
    25
100
AcDbLine
 10
332.8123300513
 20
150.3813207444
 30
0.0
 11
270.1435669502
 21
150.3813207444
 31
0.0
  0
LINE
  5
BE
330
1F
100
AcDbEntity
  8
0
  6
Continuous
 62
     7
370
    25
100
AcDbLine
 10
484.1435684999
 20
118.8813202377
 30
0.0
 11
484.1435684999
 21
173.8813199397
 31
0.0
  0
LINE
  5
BF
330
1F
100
AcDbEntity
  8
0
  6
Continuous
 62
     7
370
    25
100
AcDbLine
 10
484.1435684999
 20
63.8813205357
 30
0.0
 11
484.1435684999
 21
118.8813202377
 31
0.0
  0
LINE
  5
C0
330
1F
100
AcDbEntity
  8
0
  6
Continuous
 62
     7
370
    25
100
AcDbLine
 10
270.1435669502
 20
118.8813202377
 30
0.0
 11
270.1435669502
 21
150.3813207444
 31
0.0
  0
LINE
  5
C1
330
1F
100
AcDbEntity
  8
0
  6
Continuous
 62
     7
370
    25
100
AcDbLine
 10
270.1435669502
 20
87.3813197311
 30
0.0
 11
270.1435669502
 21
118.8813202377
 31
0.0
  0
LINE
  5
C2
330
1F
100
AcDbEntity
  8
0
  6
Continuous
 62
     1
370
    25
100
AcDbLine
 10
402.4748041471
 20
118.8813202377
 30
0.0
 11
402.4748041471
 21
173.8813199397
 31
0.0
  0
LINE
  5
C3
330
1F
100
AcDbEntity
  8
0
  6
Continuous
 62
     1
370
    25
100
AcDbLine
 10
402.4748041471
 20
63.8813205357
 30
0.0
 11
402.4748041471
 21
118.8813202377
 31
0.0
  0
LINE
  5
C4
330
1F
100
AcDbEntity
  8
0
  6
Continuous
 62
     1
370
    25
100
AcDbLine
 10
401.8300160011
 20
118.8813202377
 30
0.0
 11
401.8300160011
 21
173.774530768
 31
0.0
  0
LINE
  5
C5
330
1F
100
AcDbEntity
  8
0
  6
Continuous
 62
     1
370
    25
100
AcDbLine
 10
401.8300160011
 20
63.9881097074
 30
0.0
 11
401.8300160011
 21
118.8813202377
 31
0.0
  0
LINE
  5
C6
330
1F
100
AcDbEntity
  8
0
  6
Continuous
 62
     1
370
    25
100
AcDbLine
 10
333.4571181973
 20
118.8813202377
 30
0.0
 11
333.4571181973
 21
150.488109916
 31
0.0
  0
LINE
  5
C7
330
1F
100
AcDbEntity
  8
0
  6
Continuous
 62
     1
370
    25
100
AcDbLine
 10
333.4571181973
 20
87.2745305594
 30
0.0
 11
333.4571181973
 21
118.8813202377
 31
0.0
  0
LINE
  5
C8
330
1F
100
AcDbEntity
  8
0
  6
Continuous
 62
     1
370
    25
100
AcDbLine
 10
332.8123300513
 20
118.8813202377
 30
0.0
 11
332.8123300513
 21
150.3813207444
 31
0.0
  0
LINE
  5
C9
330
1F
100
AcDbEntity
  8
0
  6
Continuous
 62
     1
370
    25
100
AcDbLine
 10
332.8123300513
 20
87.3813197311
 30
0.0
 11
332.8123300513
 21
118.8813202377
 31
0.0
  0
LINE
  5
CA
330
1F
100
AcDbEntity
  8
0
  6
Continuous
 62
     7
370
    25
100
AcDbLine
 10
81.0804560772
 20
-125.6367906303
 30
0.0
 11
81.0804560772
 21
-207.3055549831
 31
0.0
  0
LINE
  5
CB
330
1F
100
AcDbEntity
  8
0
  6
Continuous
 62
     7
370
    25
100
AcDbLine
 10
191.0804554812
 20
-207.3055549831
 30
0.0
 11
191.0804554812
 21
-125.6367906303
 31
0.0
  0
ARC
  5
CC
330
1F
100
AcDbEntity
  8
0
  6
Continuous
 62
     7
370
    25
100
AcDbCircle
 10
83.0804557792
 20
-125.6367910782
 30
0.0
 40
2.000000000000008
100
AcDbArc
 50
161.192198873
 51
180.0
  0
ARC
  5
CD
330
1F
100
AcDbEntity
  8
0
  6
Continuous
 62
     7
370
    25
100
AcDbCircle
 10
189.0804557792
 20
-125.6367910782
 30
0.0
 40
2.0
100
AcDbArc
 50
0.0
 51
18.807801127
  0
LINE
  5
CE
330
1F
100
AcDbEntity
  8
0
  6
Continuous
 62
     7
370
    25
100
AcDbLine
 10
190.9736663095
 20
-124.9920024843
 30
0.0
 11
167.6872454575
 21
-56.6191046805
 31
0.0
  0
LINE
  5
CF
330
1F
100
AcDbEntity
  8
0
  6
Continuous
 62
     7
370
    25
100
AcDbLine
 10
104.4736661009
 20
-56.6191046805
 30
0.0
 11
81.1872452489
 21
-124.9920024843
 31
0.0
  0
ARC
  5
D0
330
1F
100
AcDbEntity
  8
0
  6
Continuous
 62
     7
370
    25
100
AcDbCircle
 10
102.5804557792
 20
-55.9743155954
 30
0.0
 40
2.0
100
AcDbArc
 50
341.192198873
 51
0.0
  0
ARC
  5
D1
330
1F
100
AcDbEntity
  8
0
  6
Continuous
 62
     7
370
    25
100
AcDbCircle
 10
169.5804557792
 20
-55.9743155954
 30
0.0
 40
2.0
100
AcDbArc
 50
180.0
 51
198.807801127
  0
LINE
  5
D2
330
1F
100
AcDbEntity
  8
0
  6
Continuous
 62
     7
370
    25
100
AcDbLine
 10
104.5804552725
 20
6.6944465666
 30
0.0
 11
104.5804552725
 21
-55.9743165345
 31
0.0
  0
LINE
  5
D3
330
1F
100
AcDbEntity
  8
0
  6
Continuous
 62
     7
370
    25
100
AcDbLine
 10
167.5804562858
 20
-55.9743165345
 30
0.0
 11
167.5804562858
 21
6.6944465666
 31
0.0
  0
LINE
  5
D4
330
1F
100
AcDbEntity
  8
0
  6
Continuous
 62
     7
370
    25
100
AcDbLine
 10
81.0804560772
 20
-207.3055549831
 30
0.0
 11
191.0804554812
 21
-207.3055549831
 31
0.0
  0
LINE
  5
D5
330
1F
100
AcDbEntity
  8
0
  6
Continuous
 62
     7
370
    25
100
AcDbLine
 10
104.5804552725
 20
6.6944465666
 30
0.0
 11
167.5804562858
 21
6.6944465666
 31
0.0
  0
LINE
  5
D6
330
1F
100
AcDbEntity
  8
0
  6
Continuous
 62
     1
370
    25
100
AcDbLine
 10
81.0804560772
 20
-125.6367906303
 30
0.0
 11
191.0804554812
 21
-125.6367906303
 31
0.0
  0
LINE
  5
D7
330
1F
100
AcDbEntity
  8
0
  6
Continuous
 62
     1
370
    25
100
AcDbLine
 10
81.1872452489
 20
-124.9920024843
 30
0.0
 11
190.9736663095
 21
-124.9920024843
 31
0.0
  0
LINE
  5
D8
330
1F
100
AcDbEntity
  8
0
  6
Continuous
 62
     1
370
    25
100
AcDbLine
 10
104.4736661009
 20
-56.6191046805
 30
0.0
 11
167.6872454575
 21
-56.6191046805
 31
0.0
  0
LINE
  5
D9
330
1F
100
AcDbEntity
  8
0
  6
Continuous
 62
     1
370
    25
100
AcDbLine
 10
104.5804552725
 20
-55.9743165345
 30
0.0
 11
167.5804562858
 21
-55.9743165345
 31
0.0
  0
LINE
  5
DA
330
1F
100
AcDbEntity
  8
0
  6
Continuous
 62
     7
370
    25
100
AcDbLine
 10
372.2687596968
 20
-25.648480255
 30
0.0
 11
314.5202226119
 21
7.6890405951
 31
0.0
  0
LINE
  5
DB
330
1F
100
AcDbEntity
  8
0
  6
Continuous
 62
     7
370
    25
100
AcDbLine
 10
259.5246913298
 20
-87.5763375393
 30
0.0
 11
317.2732284148
 21
-120.9138583893
 31
0.0
  0
SPLINE
  5
DC
330
1F
100
AcDbEntity
  8
0
  6
Continuous
 62
     7
370
    25
100
AcDbSpline
210
0.0
220
0.0
230
1.0
 70
     8
 71
     3
 72
    11
 73
     7
 74
     0
 42
0.000000001
 43
0.00000001
 40
0.0
 40
0.0
 40
0.0
 40
0.0
 40
0.2517218119968624
 40
0.5638382439761347
 40
0.8747921928658974
 40
1.0
 40
1.0
 40
1.0
 40
1.0
 10
376.8315696141019
 20
-29.28335872155868
 30
0.0
 10
376.4887851985161
 20
-28.9271530093859
 30
0.0
 10
375.7209734566052
 20
-28.12927855562872
 30
0.0
 10
374.4084636277255
 20
-27.05503442006802
 30
0.0
 10
373.2372013610789
 20
-26.20713946599136
 30
0.0
 10
372.5022392233708
 20
-25.80082878589807
 30
0.0
 10
372.2912555772393
 20
-25.68419024855032
 30
0.0
  0
SPLINE
  5
DD
330
1F
100
AcDbEntity
  8
0
  6
Continuous
 62
     7
370
    25
100
AcDbSpline
210
0.0
220
0.0
230
1.0
 70
     8
 71
     3
 72
    12
 73
     8
 74
     0
 42
0.000000001
 43
0.00000001
 40
0.0
 40
0.0
 40
0.0
 40
0.0
 40
0.0204958088719206
 40
0.3063091153081031
 40
0.5920720573417625
 40
0.878201621713619
 40
1.0
 40
1.0
 40
1.0
 40
1.0
 10
317.241138858023
 20
-120.8890130165098
 30
0.0
 10
317.2772496716664
 20
-120.9120237834143
 30
0.0
 10
317.8169244631943
 20
-121.2559188546999
 30
0.0
 10
318.9365992998196
 20
-121.7909099062669
 30
0.0
 10
320.6025268102347
 20
-122.4691020772194
 30
0.0
 10
322.0015775887501
 20
-122.9129996773656
 30
0.0
 10
322.8598321077323
 20
-123.0836811447458
 30
0.0
 10
323.1160881707218
 20
-123.1346429047934
 30
0.0
  0
LINE
  5
DE
330
1F
100
AcDbEntity
  8
0
  6
Continuous
 62
     7
370
    25
100
AcDbLine
 10
325.2013588185
 20
-123.5015673961
 30
0.0
 11
382.0434080712
 21
-130.219163269
 31
0.0
  0
LINE
  5
DF
330
1F
100
AcDbEntity
  8
0
  6
Continuous
 62
     7
370
    25
100
AcDbLine
 10
412.7173075324
 20
-77.0846543877
 30
0.0
 11
378.4743694754
 21
-31.2200064501
 31
0.0
  0
LINE
  5
E0
330
1F
100
AcDbEntity
  8
0
  6
Continuous
 62
     7
370
    25
100
AcDbLine
 10
454.0920297299
 20
-100.0187779493
 30
0.0
 11
411.4694513006
 21
-75.4132871647
 31
0.0
  0
LINE
  5
E1
330
1F
100
AcDbEntity
  8
0
  6
Continuous
 62
     7
370
    25
100
AcDbLine
 10
379.972010322
 20
-129.9743654055
 30
0.0
 11
422.5945887513
 21
-154.5798561901
 31
0.0
  0
LWPOLYLINE
  5
E2
330
1F
100
AcDbEntity
  8
0
  6
Continuous
 62
     7
370
    25
100
AcDbPolyline
 90
      110
 70
   128
 43
0.0
 10
248.1315842163
 20
-62.3948714255
 10
248.19617953
 20
-59.7702419099
 10
248.3897521027
 20
-57.079750159
 10
248.7116591949
 20
-54.3323340232
 10
249.1608313304
 20
-51.5371191469
 10
249.7357749302
 20
-48.703392543
 10
250.4345802152
 20
-45.8405693233
 10
251.2549291088
 20
-42.958154296
 10
252.1940926025
 20
-40.0657259956
 10
253.2489518296
 20
-37.1728933386
 10
254.4160059674
 20
-34.2892621636
 10
255.6913722375
 20
-31.4244169808
 10
257.07082015
 20
-28.5878692628
 10
258.5497609668
 20
-25.7890467981
 10
260.1232872141
 20
-23.0372435037
 10
261.7861700487
 20
-20.3416011738
 10
263.5328855992
 20
-17.711076022
 10
265.3576307713
 20
-15.1544052224
 10
267.2543443214
 20
-12.6800795348
 10
269.2167252956
 20
-10.2963235348
 10
271.2382541034
 20
-8.0110499874
 10
273.3122175421
 20
-5.8318575683
 10
275.4317259188
 20
-3.7659753517
 10
277.5897361003
 20
-1.8202768812
 10
279.7790811465
 20
-0.0012174338
 10
281.992488092
 20
1.6851549509
 10
284.2226039579
 20
3.2332418649
 10
286.4620209419
 20
4.637899947
 10
288.7032994666
 20
5.8944633147
 10
290.938994357
 20
6.9987556342
 10
293.1616788775
 20
7.9471100799
 10
295.3639695917
 20
8.7363776024
 10
297.5385507286
 20
9.3639318691
 10
299.6781980549
 20
9.8276952127
 10
301.7758045585
 20
10.1261199977
 10
303.8244021797
 20
10.2582194169
 10
305.8171855198
 20
10.2235538008
 10
307.7475348892
 20
10.02223784
 10
309.6090373815
 20
9.6549375413
 10
311.3955079468
 20
9.1228793512
 10
313.1010144161
 20
8.4278250584
 10
314.7198933067
 20
7.5720870016
 10
316.2467603586
 20
6.5585037333
 10
317.6765500475
 20
5.3904476216
 10
319.004507682
 20
4.0717959522
 10
320.2262262823
 20
2.606927884
 10
321.3376439459
 20
1.0007122817
 10
322.3350701893
 20
-0.7415166218
 10
323.2151912166
 20
-2.613971393
 10
323.9750830902
 20
-4.6104311709
 10
324.6122222675
 20
-6.724265243
 10
325.1244935036
 20
-8.9484497754
 10
325.5101924852
 20
-11.2755974717
 10
325.7680390018
 20
-13.697977346
 10
325.8971769457
 20
-16.2075430502
 10
325.8971769457
 20
-18.7959575894
 10
325.7680390018
 20
-21.45462279
 10
325.5101924852
 20
-24.1747059156
 10
325.1244935036
 20
-26.9471721772
 10
324.6122222675
 20
-29.7628124892
 10
323.9750830902
 20
-32.6122717972
 10
323.2151912166
 20
-35.4860840574
 10
322.3350701893
 20
-38.374704937
 10
321.3376439459
 20
-41.2685376686
 10
320.2262262823
 20
-44.1579687913
 10
319.004507682
 20
-47.0334031306
 10
317.6765500475
 20
-49.8852820492
 10
316.2467603586
 20
-52.7041381975
 10
314.7198933067
 20
-55.4806046398
 10
313.1010144161
 20
-58.2054604784
 10
311.3955079468
 20
-60.8696506264
 10
309.6090373815
 20
-63.4643238272
 10
307.7475348892
 20
-65.9808691556
 10
305.8171855198
 20
-68.4109190584
 10
303.8244021797
 20
-70.7464033445
 10
301.7758045585
 20
-72.9795643929
 10
299.6781980549
 20
-75.1029845264
 10
297.5385507286
 20
-77.1096054022
 10
295.3639695917
 20
-78.9927690741
 10
293.1616788775
 20
-80.7462122871
 10
290.938994357
 20
-82.3641147644
 10
288.7032994666
 20
-83.8411008213
 10
286.4620209419
 20
-85.1722625569
 10
284.2226039579
 20
-86.353180289
 10
281.992488092
 20
-87.3799303469
 10
279.7790811465
 20
-88.2491032251
 10
277.5897361003
 20
-88.9578077631
 10
275.4317259188
 20
-89.5036948132
 10
273.3122175421
 20
-89.8849448798
 10
271.2382541034
 20
-90.1002996776
 10
269.2167252956
 20
-90.1490336109
 10
267.2543443214
 20
-90.0309944566
 10
265.3576307713
 20
-89.7465676207
 10
263.5328855992
 20
-89.2967027522
 10
261.7861700487
 20
-88.6828924479
 10
260.1232872141
 20
-87.9071737721
 10
258.5497609668
 20
-86.9721252122
 10
257.07082015
 20
-85.8808514684
 10
255.6913722375
 20
-84.6369804091
 10
254.4160059674
 20
-83.2446417785
 10
253.2489518296
 20
-81.7084626298
 10
252.1940926025
 20
-80.0335445123
 10
251.2549291088
 20
-78.225451301
 10
250.4345802152
 20
-76.2901909455
 10
249.7357749302
 20
-74.2341911342
 10
249.1608313304
 20
-72.0642802809
 10
248.7116591949
 20
-69.7876685134
 10
248.3897521027
 20
-67.4119183951
 10
248.19617953
 20
-64.9449207795
 10
248.1315842163
 20
-62.3948714255
  0
LWPOLYLINE
  5
E3
330
1F
100
AcDbEntity
  8
0
  6
Continuous
 62
     7
370
    25
100
AcDbPolyline
 90
      103
 70
   128
 43
0.0
 10
252.7984889469
 20
-59.7007246711
 10
252.8634003619
 20
-57.2303296071
 10
253.0578896285
 20
-54.6943598192
 10
253.3812165427
 20
-52.1024364245
 10
253.8321562117
 20
-49.464390382
 10
254.4089990538
 20
-46.7902288429
 10
255.1095560672
 20
-44.0900954162
 10
255.9311693663
 20
-41.3742340481
 10
256.8707227183
 20
-38.6529449162
 10
257.9246520806
 20
-35.93655173
 10
259.0889587707
 20
-33.2353599077
 10
260.3592279063
 20
-30.5596139909
 10
261.7306389416
 20
-27.919464186
 10
263.1979920093
 20
-25.3249268224
 10
264.7557158226
 20
-22.7858463297
 10
266.3979085058
 20
-20.3118473331
 10
268.1183362766
 20
-17.9123202039
 10
269.9104729588
 20
-15.596364789
 10
271.7675210562
 20
-13.3727660785
 10
273.6824380936
 20
-11.2499607473
 10
275.6479563739
 20
-9.2360014154
 10
277.6566238074
 20
-7.3385269939
 10
279.7008177415
 20
-5.5647334081
 10
281.7727857903
 20
-3.921350027
 10
283.8646675664
 20
-2.4146149507
 10
285.9685278556
 20
-1.0502376079
 10
288.0763860861
 20
0.1666030474
 10
290.1802463752
 20
1.2312910903
 10
292.2721281514
 20
2.139791303
 10
294.3440962001
 20
2.8886513107
 10
296.3882901343
 20
3.4750338034
 10
298.3969575678
 20
3.8967174361
 10
300.3624758481
 20
4.1520972064
 10
302.2773928855
 20
4.2402080259
 10
304.1344409828
 20
4.1607114101
 10
305.9265776651
 20
3.9139129653
 10
307.6470054358
 20
3.5007494592
 10
309.2891981191
 20
2.9227857764
 10
310.8469219324
 20
2.1822149163
 10
312.314275
 20
1.2818473431
 10
313.6856860354
 20
0.2250950161
 10
314.955955171
 20
-0.9840293746
 10
316.1202618611
 20
-2.3409413064
 10
317.1741912233
 20
-3.8404935521
 10
318.1137445754
 20
-5.4769974741
 10
318.9353578745
 20
-7.2442443189
 10
319.6359148879
 20
-9.1355318347
 10
320.21275773
 20
-11.1436848046
 10
320.663697399
 20
-13.2610869875
 10
320.9870243131
 20
-15.4797050732
 10
321.1815135798
 20
-17.7911223336
 10
321.2464249948
 20
-20.186572273
 10
321.1815135798
 20
-22.656967337
 10
320.9870243131
 20
-25.1929371249
 10
320.663697399
 20
-27.7848605196
 10
320.21275773
 20
-30.4229065621
 10
319.6359148879
 20
-33.0970681012
 10
318.9353578745
 20
-35.7972015279
 10
318.1137445754
 20
-38.513062896
 10
317.1741912233
 20
-41.234352028
 10
316.1202618611
 20
-43.9507452141
 10
314.955955171
 20
-46.6519370364
 10
313.6856860354
 20
-49.3276829532
 10
312.314275
 20
-51.9678327581
 10
310.8469219324
 20
-54.5623701218
 10
309.2891981191
 20
-57.1014506144
 10
307.6470054358
 20
-59.575449611
 10
305.9265776651
 20
-61.9749767403
 10
304.1344409828
 20
-64.2909321551
 10
302.2773928855
 20
-66.5145308657
 10
300.3624758481
 20
-68.6373361969
 10
298.3969575678
 20
-70.6512955287
 10
296.3882901343
 20
-72.5487699502
 10
294.3440962001
 20
-74.3225635361
 10
292.2721281514
 20
-75.9659469171
 10
290.1802463752
 20
-77.4726819934
 10
288.0763860861
 20
-78.8370593362
 10
285.9685278556
 20
-80.0538999915
 10
283.8646675664
 20
-81.1185880344
 10
281.7727857903
 20
-82.0270882471
 10
279.7008177415
 20
-82.7759482548
 10
277.6566238074
 20
-83.3623307476
 10
275.6479563739
 20
-83.7840143802
 10
273.6824380936
 20
-84.0393941505
 10
271.7675210562
 20
-84.1275049701
 10
269.9104729588
 20
-84.0480083542
 10
268.1183362766
 20
-83.8012099094
 10
266.3979085058
 20
-83.3880464033
 10
264.7557158226
 20
-82.8100827205
 10
263.1979920093
 20
-82.0695118604
 10
261.7306389416
 20
-81.1691442872
 10
260.3592279063
 20
-80.1123919602
 10
259.0889587707
 20
-78.9032675695
 10
257.9246520806
 20
-77.5463556377
 10
256.8707227183
 20
-76.046803392
 10
255.9311693663
 20
-74.4102994701
 10
255.1095560672
 20
-72.6430526252
 10
254.4089990538
 20
-70.7517651095
 10
253.8321562117
 20
-68.7436121395
 10
253.3812165427
 20
-66.6262099566
 10
253.0578896285
 20
-64.4075918709
 10
252.8634003619
 20
-62.0961746106
 10
252.7984889469
 20
-59.7007246711
  0
ARC
  5
E4
330
1F
100
AcDbEntity
  8
0
  6
Continuous
 62
     7
370
    25
100
AcDbCircle
 10
361.1451121721
 20
-44.2138865103
 30
0.0
 40
21.65995639006674
100
AcDbArc
 50
29.3304663377
 51
43.4491307585
  0
ARC
  5
E5
330
1F
100
AcDbEntity
  8
0
  6
Continuous
 62
     7
370
    25
100
AcDbCircle
 10
327.8037686777
 20
-101.763336681
 30
0.0
 40
21.89286635733952
100
AcDbArc
 50
257.9434687013
 51
270.3580440075
  0
LWPOLYLINE
  5
E6
330
1F
100
AcDbEntity
  8
0
  6
Continuous
 62
     7
370
    25
100
AcDbPolyline
 90
       43
 70
   128
 43
0.0
 10
454.0920297299
 20
-100.0187779493
 10
454.3921087058
 20
-100.1987399918
 10
455.5273538268
 20
-101.0143646385
 10
456.5617560273
 20
-101.9842404808
 10
457.489244844
 20
-103.1026733633
 10
458.3043780651
 20
-104.363103783
 10
459.0023720232
 20
-105.758131987
 10
459.5791305717
 20
-107.2795719685
 10
460.0312687916
 20
-108.918496336
 10
460.3561327487
 20
-110.665286886
 10
460.5518166151
 20
-112.50969259
 10
460.6171732062
 20
-114.4408891017
 10
460.5518166151
 20
-116.4475447273
 10
460.3561327487
 20
-118.5178822143
 10
460.0312687916
 20
-120.6397527053
 10
459.5791305717
 20
-122.8007047499
 10
459.0023720232
 20
-124.9880559771
 10
458.3043780651
 20
-127.1889708515
 10
457.489244844
 20
-129.3905340557
 10
456.5617560273
 20
-131.5798227321
 10
455.5273538268
 20
-133.7439939338
 10
454.3921087058
 20
-135.8703446976
 10
453.1626825006
 20
-137.9463964526
 10
451.8462915418
 20
-139.959968021
 10
450.4506592395
 20
-141.8992410131
 10
448.9839752531
 20
-143.7528366308
 10
447.4548480764
 20
-145.5098749787
 10
445.872251037
 20
-147.1600488243
 10
444.2454709294
 20
-148.6936699815
 10
442.5840550028
 20
-150.1017409786
 10
440.8977521852
 20
-151.3759996358
 10
439.1964590837
 20
-152.5089654478
 10
437.4901593975
 20
-153.4939912898
 10
435.7888662959
 20
-154.3252966821
 10
434.1025634784
 20
-154.9980018158
 10
432.4411475517
 20
-155.5081608169
 10
430.8143674442
 20
-155.8527799925
 10
429.2317704047
 20
-156.0298337949
 10
427.7026432281
 20
-156.0382881056
 10
426.2359592417
 20
-155.8780897737
 10
424.8403269393
 20
-155.550179539
 10
423.5239359806
 20
-155.0564806203
 10
422.5945887513
 20
-154.5798561901
  0
LWPOLYLINE
  5
E7
330
1F
100
AcDbEntity
  8
0
  6
Continuous
 62
     1
370
    25
100
AcDbPolyline
 90
       57
 70
   128
 43
0.0
 10
372.2687596968
 20
-25.648480255
 10
372.4684303917
 20
-25.7654338485
 10
373.9952974436
 20
-26.7790171167
 10
375.4250871324
 20
-27.9470732285
 10
376.753044767
 20
-29.2657248979
 10
377.9747633673
 20
-30.7305929661
 10
379.0861810309
 20
-32.3368085684
 10
380.0836072743
 20
-34.0790374719
 10
380.9637283016
 20
-35.9514922431
 10
381.7236201752
 20
-37.947952021
 10
382.3607593525
 20
-40.0617860931
 10
382.8730305886
 20
-42.2859706255
 10
383.2587295702
 20
-44.6131183218
 10
383.5165760868
 20
-47.0354981961
 10
383.6457140307
 20
-49.5450639003
 10
383.6457140307
 20
-52.1334784395
 10
383.5165760868
 20
-54.79214364
 10
383.2587295702
 20
-57.5122267657
 10
382.8730305886
 20
-60.2846930273
 10
382.3607593525
 20
-63.1003333393
 10
381.7236201752
 20
-65.9497926472
 10
380.9637283016
 20
-68.8236049075
 10
380.0836072743
 20
-71.7122257871
 10
379.0861810309
 20
-74.6060585187
 10
377.9747633673
 20
-77.4954896414
 10
376.753044767
 20
-80.3709239807
 10
375.4250871324
 20
-83.2228028993
 10
373.9952974436
 20
-86.0416590476
 10
372.4684303917
 20
-88.8181254899
 10
370.8495515011
 20
-91.5429813285
 10
369.1440450318
 20
-94.2071714765
 10
367.3575744665
 20
-96.8018446773
 10
365.4960719742
 20
-99.3183900057
 10
363.5657226048
 20
-101.7484399084
 10
361.5729392647
 20
-104.0839241946
 10
359.5243416435
 20
-106.3170852429
 10
357.4267351399
 20
-108.4405053765
 10
355.2870878136
 20
-110.4471262523
 10
353.1125066767
 20
-112.3302899242
 10
350.9102159625
 20
-114.0837331372
 10
348.687531442
 20
-115.7016356145
 10
346.4518365516
 20
-117.1786216714
 10
344.2105580269
 20
-118.509783407
 10
341.9711410429
 20
-119.690701139
 10
339.741025177
 20
-120.717451197
 10
337.5276182315
 20
-121.5866240752
 10
335.3382731853
 20
-122.2953286132
 10
333.1802630038
 20
-122.8412156633
 10
331.060754627
 20
-123.2224657299
 10
328.9867911884
 20
-123.4378205276
 10
326.9652623806
 20
-123.4865544609
 10
325.0028814064
 20
-123.3685153067
 10
323.1061678563
 20
-123.0840884708
 10
321.2814226842
 20
-122.6342236023
 10
319.5347071337
 20
-122.020413298
 10
317.8718242991
 20
-121.2446946222
 10
317.2732284148
 20
-120.9138583893
  0
LWPOLYLINE
  5
E8
330
1F
100
AcDbEntity
  8
0
  6
Continuous
 62
     1
370
    25
100
AcDbPolyline
 90
       45
 70
   128
 43
0.0
 10
380.0284554889
 20
-33.6038414584
 10
380.4709763248
 20
-34.4183585101
 10
381.3493904047
 20
-36.2871765875
 10
382.1078071386
 20
-38.2797609082
 10
382.7437082523
 20
-40.3894906458
 10
383.254983769
 20
-42.6093571765
 10
383.6399346441
 20
-44.9319861321
 10
383.8972806669
 20
-47.3496628766
 10
384.0261683638
 20
-49.8543554161
 10
384.0261683638
 20
-52.4377442462
 10
383.8972806669
 20
-55.0912473531
 10
383.6399346441
 20
-57.8060494911
 10
383.254983769
 20
-60.5731332666
 10
382.7437082523
 20
-63.3833059438
 10
382.1078071386
 20
-66.2272314795
 10
381.3493904047
 20
-69.0954651224
 10
380.4709763248
 20
-71.9784785088
 10
379.4754862022
 20
-74.8666931222
 10
378.3662285646
 20
-77.7505122315
 10
377.1468807245
 20
-80.6203634747
 10
375.8215019503
 20
-83.4667064654
 10
374.3944886851
 20
-86.2800875414
 10
372.8705850834
 20
-89.0511625799
 10
371.2548514015
 20
-91.7707289337
 10
369.5526560939
 20
-94.429743682
 10
367.7696521069
 20
-97.0193829437
 10
365.9117650239
 20
-99.5310395954
 10
363.9851640899
 20
-101.9563734591
 10
361.9962503574
 20
-104.2873211868
 10
359.9516303449
 20
-106.5161479698
 10
357.8580975977
 20
-108.6354429745
 10
355.7226037116
 20
-110.6381695293
 10
353.552245162
 20
-112.5176757709
 10
351.3542303774
 20
-114.267713652
 10
349.1358612991
 20
-115.8824739214
 10
346.9045070401
 20
-117.3565922048
 10
344.6675802599
 20
-118.6851717691
 10
342.4325113983
 20
-119.8637983969
 10
340.2067254625
 20
-120.8885537867
 10
337.9976161785
 20
-121.7560365592
 10
335.8125220371
 20
-122.4633669594
 10
333.6587008572
 20
-123.0081924161
 10
331.5433097007
 20
-123.3887052201
 10
329.4733726032
 20
-123.6036398596
 10
327.9405773337
 20
-123.6557755751
  0
LWPOLYLINE
  5
E9
330
1F
100
AcDbEntity
  8
0
  6
Continuous
 62
     1
370
    25
100
AcDbPolyline
 90
       37
 70
   128
 43
0.0
 10
412.7173075324
 20
-77.0846543877
 10
413.2717809347
 20
-77.8902746423
 10
414.0139105459
 20
-79.2170554433
 10
414.6389614802
 20
-80.6712103973
 10
415.1433538897
 20
-82.2444098184
 10
415.5241967641
 20
-83.9276430907
 10
415.7793116382
 20
-85.7112677207
 10
415.9072352259
 20
-87.5850684631
 10
415.9072352259
 20
-89.5383116956
 10
415.7793116382
 20
-91.5598098686
 10
415.5241967641
 20
-93.6379838625
 10
415.1433538897
 20
-95.7609289581
 10
414.6389614802
 20
-97.9164874594
 10
414.0139105459
 20
-100.092310861
 10
413.2717809347
 20
-102.2759362725
 10
412.4168242102
 20
-104.4548552387
 10
411.453935992
 20
-106.6165897835
 10
410.388632249
 20
-108.7487562861
 10
409.2270150547
 20
-110.8391415248
 10
407.9757383427
 20
-112.8757718751
 10
406.6419697114
 20
-114.8469825089
 10
405.2333469601
 20
-116.7414805085
 10
403.7579405517
 20
-118.5484182477
 10
402.2242002708
 20
-120.257440916
 10
400.6409117596
 20
-121.8587633211
 10
399.0171435054
 20
-123.3432126599
 10
397.3621971199
 20
-124.7022845982
 10
395.6855515283
 20
-125.9281937409
 10
393.9968102439
 20
-127.0139223205
 10
392.3056464213
 20
-127.9532458343
 10
390.6217467973
 20
-128.7407882193
 10
388.9547569499
 20
-129.3720367245
 10
387.3142244573
 20
-129.8433747238
 10
385.7095470791
 20
-130.152105547
 10
384.1499154623
 20
-130.2964581779
 10
382.6442634217
 20
-130.2756068318
 10
382.0434080712
 20
-130.219163269
  0
LWPOLYLINE
  5
EA
330
1F
100
AcDbEntity
  8
0
  6
Continuous
 62
     1
370
    25
100
AcDbPolyline
 90
       39
 70
   128
 43
0.0
 10
412.068285578
 20
-76.2153581559
 10
412.2482486699
 20
-76.4025972039
 10
413.1757374866
 20
-77.5210300865
 10
413.9908707077
 20
-78.7814605062
 10
414.6888646659
 20
-80.1764887102
 10
415.2656232143
 20
-81.6979286917
 10
415.7177614343
 20
-83.3368530592
 10
416.0426253913
 20
-85.0836436092
 10
416.2383092577
 20
-86.9280493132
 10
416.3036658488
 20
-88.8592458249
 10
416.2383092577
 20
-90.8659014505
 10
416.0426253913
 20
-92.9362389375
 10
415.7177614343
 20
-95.0581094285
 10
415.2656232143
 20
-97.219061473
 10
414.6888646659
 20
-99.4064127003
 10
413.9908707077
 20
-101.6073275747
 10
413.1757374866
 20
-103.8088907789
 10
412.2482486699
 20
-105.9981794553
 10
411.2138464694
 20
-108.1623506569
 10
410.0786013485
 20
-110.2887014208
 10
408.8491751432
 20
-112.3647531758
 10
407.5327841844
 20
-114.3783247442
 10
406.1371518821
 20
-116.3175977363
 10
404.6704678957
 20
-118.171193354
 10
403.1413407191
 20
-119.9282317019
 10
401.5587436796
 20
-121.5784055475
 10
399.9319635721
 20
-123.1120267046
 10
398.2705476454
 20
-124.5200977018
 10
396.5842448278
 20
-125.794356359
 10
394.8829517263
 20
-126.927322171
 10
393.1766520401
 20
-127.912348013
 10
391.4753589386
 20
-128.7436534053
 10
389.789056121
 20
-129.4163585389
 10
388.1276401944
 20
-129.9265175401
 10
386.5008600868
 20
-130.2711367157
 10
384.9182630474
 20
-130.4481905181
 10
383.3891358707
 20
-130.4566448288
 10
381.9224518843
 20
-130.2964464969
 10
380.9660542808
 20
-130.0918416674
  0
ENDSEC
  0
SECTION
  2
OBJECTS
  0
DICTIONARY
  5
C
330
0
100
AcDbDictionary
281
     1
  3
ACAD_GROUP
350
D
  3
ACAD_LAYOUT
350
1A
  3
ACAD_MLINESTYLE
350
17
  3
ACAD_PLOTSETTINGS
350
19
  3
ACAD_PLOTSTYLENAME
350
E
  3
ACAD_SCALELIST
350
47
  0
DICTIONARY
  5
D
102
{ACAD_REACTORS
330
C
102
}
330
C
100
AcDbDictionary
281
     1
  0
DICTIONARY
  5
1A
102
{ACAD_REACTORS
330
C
102
}
330
C
100
AcDbDictionary
281
     1
  3
Layout1
350
1E
  3
Layout2
350
26
  3
Model
350
22
  0
DICTIONARY
  5
17
102
{ACAD_REACTORS
330
C
102
}
330
C
100
AcDbDictionary
281
     1
  3
Standard
350
18
  0
DICTIONARY
  5
19
102
{ACAD_REACTORS
330
C
102
}
330
C
100
AcDbDictionary
281
     1
  0
ACDBDICTIONARYWDFLT
  5
E
102
{ACAD_REACTORS
330
C
102
}
330
C
100
AcDbDictionary
281
     1
  3
Normal
350
F
100
AcDbDictionaryWithDefault
340
F
  0
DICTIONARY
  5
47
102
{ACAD_REACTORS
330
C
102
}
330
C
100
AcDbDictionary
281
     1
  3
A0
350
48
  3
A1
350
49
  3
A2
350
4A
  3
A3
350
4B
  3
A4
350
4C
  3
A5
350
4D
  3
A6
350
4E
  3
A7
350
4F
  3
A8
350
50
  3
A9
350
51
  3
B0
350
52
  3
B1
350
53
  3
B2
350
54
  3
B3
350
55
  3
B4
350
56
  3
B5
350
57
  3
B6
350
58
  3
B7
350
59
  3
B8
350
5A
  3
B9
350
5B
  3
C0
350
5C
  3
C1
350
5D
  3
C2
350
5E
  3
C3
350
5F
  3
C4
350
60
  3
C5
350
61
  3
C6
350
62
  3
C7
350
63
  3
C8
350
64
  3
C9
350
65
  3
D0
350
66
  3
D1
350
67
  3
D2
350
68
  0
LAYOUT
  5
1E
102
{ACAD_REACTORS
330
1A
102
}
330
1A
100
AcDbPlotSettings
  1

  2
none_device
  4

  6

 40
0.0
 41
0.0
 42
0.0
 43
0.0
 44
0.0
 45
0.0
 46
0.0
 47
0.0
 48
0.0
 49
0.0
140
0.0
141
0.0
142
1.0
143
1.0
 70
   688
 72
     1
 73
     0
 74
     5
  7

 75
    16
147
1.0
148
0.0
149
0.0
100
AcDbLayout
  1
Layout1
 70
     1
 71
     1
 10
0.0
 20
0.0
 11
420.0
 21
297.0
 12
0.0
 22
0.0
 32
0.0
 14
1.0000000000E+20
 24
1.0000000000E+20
 34
1.0000000000E+20
 15
-1.0000000000E+20
 25
-1.0000000000E+20
 35
-1.0000000000E+20
146
0.0
 13
0.0
 23
0.0
 33
0.0
 16
1.0
 26
0.0
 36
0.0
 17
0.0
 27
1.0
 37
0.0
 76
     0
330
1B
  0
LAYOUT
  5
26
102
{ACAD_REACTORS
330
1A
102
}
330
1A
100
AcDbPlotSettings
  1

  2
none_device
  4

  6

 40
0.0
 41
0.0
 42
0.0
 43
0.0
 44
0.0
 45
0.0
 46
0.0
 47
0.0
 48
0.0
 49
0.0
140
0.0
141
0.0
142
1.0
143
1.0
 70
   688
 72
     1
 73
     0
 74
     5
  7

 75
    16
147
1.0
148
0.0
149
0.0
100
AcDbLayout
  1
Layout2
 70
     1
 71
     2
 10
0.0
 20
0.0
 11
0.0
 21
0.0
 12
0.0
 22
0.0
 32
0.0
 14
0.0
 24
0.0
 34
0.0
 15
0.0
 25
0.0
 35
0.0
146
0.0
 13
0.0
 23
0.0
 33
0.0
 16
1.0
 26
0.0
 36
0.0
 17
0.0
 27
1.0
 37
0.0
 76
     0
330
23
  0
LAYOUT
  5
22
102
{ACAD_REACTORS
330
1A
102
}
330
1A
100
AcDbPlotSettings
  1

  2
none_device
  4
Letter_(8.50_x_11.00_Inches)
  6

 40
6.35
 41
6.35
 42
6.35000508
 43
6.35000508
 44
215.9
 45
279.4
 46
0.0
 47
0.0
 48
0.0
 49
0.0
140
0.0
141
0.0
142
1.0
143
1.0
 70
  1712
 72
     1
 73
     0
 74
     0
  7

 75
     0
147
1.0
148
0.0
149
0.0
100
AcDbLayout
  1
Model
 70
     1
 71
     0
 10
0.0
 20
0.0
 11
279.4
 21
215.9
 12
0.0
 22
0.0
 32
0.0
 14
0.0
 24
0.0
 34
0.0
 15
279.4
 25
215.9
 35
0.0
146
0.0
 13
0.0
 23
0.0
 33
0.0
 16
1.0
 26
0.0
 36
0.0
 17
0.0
 27
1.0
 37
0.0
 76
     0
330
1F
331
29
  0
MLINESTYLE
  5
18
102
{ACAD_REACTORS
330
17
102
}
330
17
100
AcDbMlineStyle
  2
Standard
 70
     0
  3

 62
   256
 51
90.0
 52
90.0
 71
     2
 49
0.5
 62
   256
  6
BYLAYER
 49
-0.5
 62
   256
  6
BYLAYER
  0
ACDBPLACEHOLDER
  5
F
102
{ACAD_REACTORS
330
E
102
}
330
E
  0
SCALE
  5
48
102
{ACAD_REACTORS
330
47
102
}
330
47
100
AcDbScale
 70
     0
300
1:1
140
1.0
141
1.0
290
     1
  0
SCALE
  5
49
102
{ACAD_REACTORS
330
47
102
}
330
47
100
AcDbScale
 70
     0
300
1:2
140
1.0
141
2.0
290
     0
  0
SCALE
  5
4A
102
{ACAD_REACTORS
330
47
102
}
330
47
100
AcDbScale
 70
     0
300
1:4
140
1.0
141
4.0
290
     0
  0
SCALE
  5
4B
102
{ACAD_REACTORS
330
47
102
}
330
47
100
AcDbScale
 70
     0
300
1:5
140
1.0
141
5.0
290
     0
  0
SCALE
  5
4C
102
{ACAD_REACTORS
330
47
102
}
330
47
100
AcDbScale
 70
     0
300
1:8
140
1.0
141
8.0
290
     0
  0
SCALE
  5
4D
102
{ACAD_REACTORS
330
47
102
}
330
47
100
AcDbScale
 70
     0
300
1:10
140
1.0
141
10.0
290
     0
  0
SCALE
  5
4E
102
{ACAD_REACTORS
330
47
102
}
330
47
100
AcDbScale
 70
     0
300
1:16
140
1.0
141
16.0
290
     0
  0
SCALE
  5
4F
102
{ACAD_REACTORS
330
47
102
}
330
47
100
AcDbScale
 70
     0
300
1:20
140
1.0
141
20.0
290
     0
  0
SCALE
  5
50
102
{ACAD_REACTORS
330
47
102
}
330
47
100
AcDbScale
 70
     0
300
1:30
140
1.0
141
30.0
290
     0
  0
SCALE
  5
51
102
{ACAD_REACTORS
330
47
102
}
330
47
100
AcDbScale
 70
     0
300
1:40
140
1.0
141
40.0
290
     0
  0
SCALE
  5
52
102
{ACAD_REACTORS
330
47
102
}
330
47
100
AcDbScale
 70
     0
300
1:50
140
1.0
141
50.0
290
     0
  0
SCALE
  5
53
102
{ACAD_REACTORS
330
47
102
}
330
47
100
AcDbScale
 70
     0
300
1:100
140
1.0
141
100.0
290
     0
  0
SCALE
  5
54
102
{ACAD_REACTORS
330
47
102
}
330
47
100
AcDbScale
 70
     0
300
2:1
140
2.0
141
1.0
290
     0
  0
SCALE
  5
55
102
{ACAD_REACTORS
330
47
102
}
330
47
100
AcDbScale
 70
     0
300
4:1
140
4.0
141
1.0
290
     0
  0
SCALE
  5
56
102
{ACAD_REACTORS
330
47
102
}
330
47
100
AcDbScale
 70
     0
300
8:1
140
8.0
141
1.0
290
     0
  0
SCALE
  5
57
102
{ACAD_REACTORS
330
47
102
}
330
47
100
AcDbScale
 70
     0
300
10:1
140
10.0
141
1.0
290
     0
  0
SCALE
  5
58
102
{ACAD_REACTORS
330
47
102
}
330
47
100
AcDbScale
 70
     0
300
100:1
140
100.0
141
1.0
290
     0
  0
SCALE
  5
59
102
{ACAD_REACTORS
330
47
102
}
330
47
100
AcDbScale
 70
     0
300
1/128" = 1'-0"
140
0.0078125
141
12.0
290
     0
  0
SCALE
  5
5A
102
{ACAD_REACTORS
330
47
102
}
330
47
100
AcDbScale
 70
     0
300
1/64" = 1'-0"
140
0.015625
141
12.0
290
     0
  0
SCALE
  5
5B
102
{ACAD_REACTORS
330
47
102
}
330
47
100
AcDbScale
 70
     0
300
1/32" = 1'-0"
140
0.03125
141
12.0
290
     0
  0
SCALE
  5
5C
102
{ACAD_REACTORS
330
47
102
}
330
47
100
AcDbScale
 70
     0
300
1/16" = 1'-0"
140
0.0625
141
12.0
290
     0
  0
SCALE
  5
5D
102
{ACAD_REACTORS
330
47
102
}
330
47
100
AcDbScale
 70
     0
300
3/32" = 1'-0"
140
0.09375
141
12.0
290
     0
  0
SCALE
  5
5E
102
{ACAD_REACTORS
330
47
102
}
330
47
100
AcDbScale
 70
     0
300
1/8" = 1'-0"
140
0.125
141
12.0
290
     0
  0
SCALE
  5
5F
102
{ACAD_REACTORS
330
47
102
}
330
47
100
AcDbScale
 70
     0
300
3/16" = 1'-0"
140
0.1875
141
12.0
290
     0
  0
SCALE
  5
60
102
{ACAD_REACTORS
330
47
102
}
330
47
100
AcDbScale
 70
     0
300
1/4" = 1'-0"
140
0.25
141
12.0
290
     0
  0
SCALE
  5
61
102
{ACAD_REACTORS
330
47
102
}
330
47
100
AcDbScale
 70
     0
300
3/8" = 1'-0"
140
0.375
141
12.0
290
     0
  0
SCALE
  5
62
102
{ACAD_REACTORS
330
47
102
}
330
47
100
AcDbScale
 70
     0
300
1/2" = 1'-0"
140
0.5
141
12.0
290
     0
  0
SCALE
  5
63
102
{ACAD_REACTORS
330
47
102
}
330
47
100
AcDbScale
 70
     0
300
3/4" = 1'-0"
140
0.75
141
12.0
290
     0
  0
SCALE
  5
64
102
{ACAD_REACTORS
330
47
102
}
330
47
100
AcDbScale
 70
     0
300
1" = 1'-0"
140
1.0
141
12.0
290
     0
  0
SCALE
  5
65
102
{ACAD_REACTORS
330
47
102
}
330
47
100
AcDbScale
 70
     0
300
1-1/2" = 1'-0"
140
1.5
141
12.0
290
     0
  0
SCALE
  5
66
102
{ACAD_REACTORS
330
47
102
}
330
47
100
AcDbScale
 70
     0
300
3" = 1'-0"
140
3.0
141
12.0
290
     0
  0
SCALE
  5
67
102
{ACAD_REACTORS
330
47
102
}
330
47
100
AcDbScale
 70
     0
300
6" = 1'-0"
140
6.0
141
12.0
290
     0
  0
SCALE
  5
68
102
{ACAD_REACTORS
330
47
102
}
330
47
100
AcDbScale
 70
     0
300
1'-0" = 1'-0"
140
12.0
141
12.0
290
     0
  0
ENDSEC
  0
EOF
