  0
SECTION
  2
HEADER
  9
$ACADVER
  1
AC1015
  9
$ACADMAINTVER
 70
     6
  9
$DWGCODEPAGE
  3
ANSI_1254
  9
$INSBASE
 10
0.0
 20
0.0
 30
0.0
  9
$EXTMIN
 10
0.0
 20
0.0
 30
0.0
  9
$EXTMAX
 10
279.4
 20
215.9
 30
0.0
  9
$LIMMIN
 10
0.0
 20
0.0
  9
$LIMMAX
 10
279.4
 20
215.9
  9
$ORTHOMODE
 70
     0
  9
$REGENMODE
 70
     1
  9
$FILLMODE
 70
     1
  9
$QTEXTMODE
 70
     0
  9
$MIRRTEXT
 70
     1
  9
$LTSCALE
 40
1.0
  9
$ATTMODE
 70
     1
  9
$TEXTSIZE
 40
3.5
  9
$TRACEWID
 40
1.0
  9
$TEXTSTYLE
  7
Standard
  9
$CLAYER
  8
0
  9
$CELTYPE
  6
ByLayer
  9
$CECOLOR
 62
   256
  9
$CELTSCALE
 40
1.0
  9
$DISPSILH
 70
     0
  9
$DIMSCALE
 40
1.0
  9
$DIMASZ
 40
3.5
  9
$DIMEXO
 40
1.0
  9
$DIMDLI
 40
3.75
  9
$DIMRND
 40
0.0
  9
$DIMDLE
 40
0.0
  9
$DIMEXE
 40
1.0
  9
$DIMTP
 40
0.0
  9
$DIMTM
 40
0.0
  9
$DIMTXT
 40
3.5
  9
$DIMCEN
 40
2.5
  9
$DIMTSZ
 40
0.0
  9
$DIMTOL
 70
     0
  9
$DIMLIM
 70
     0
  9
$DIMTIH
 70
     1
  9
$DIMTOH
 70
     1
  9
$DIMSE1
 70
     0
  9
$DIMSE2
 70
     0
  9
$DIMTAD
 70
     1
  9
$DIMZIN
 70
     0
  9
$DIMBLK
  1

  9
$DIMASO
 70
     1
  9
$DIMSHO
 70
     1
  9
$DIMPOST
  1

  9
$DIMAPOST
  1

  9
$DIMALT
 70
     0
  9
$DIMALTD
 70
     3
  9
$DIMALTF
 40
0.0393700787
  9
$DIMLFAC
 40
1.0
  9
$DIMTOFL
 70
     1
  9
$DIMTVP
 40
0.0
  9
$DIMTIX
 70
     0
  9
$DIMSOXD
 70
     0
  9
$DIMSAH
 70
     0
  9
$DIMBLK1
  1

  9
$DIMBLK2
  1

  9
$DIMSTYLE
  2
ISO-25
  9
$DIMCLRD
 70
     0
  9
$DIMCLRE
 70
     0
  9
$DIMCLRT
 70
     0
  9
$DIMTFAC
 40
1.0
  9
$DIMGAP
 40
1.524
  9
$DIMJUST
 70
     0
  9
$DIMSD1
 70
     0
  9
$DIMSD2
 70
     0
  9
$DIMTOLJ
 70
     0
  9
$DIMTZIN
 70
     0
  9
$DIMALTZ
 70
     0
  9
$DIMALTTZ
 70
     0
  9
$DIMUPT
 70
     0
  9
$DIMDEC
 70
     2
  9
$DIMTDEC
 70
     2
  9
$DIMALTU
 70
     2
  9
$DIMALTTD
 70
     3
  9
$DIMTXSTY
  7
Standard
  9
$DIMAUNIT
 70
     0
  9
$DIMADEC
 70
     2
  9
$DIMALTRND
 40
0.0
  9
$DIMAZIN
 70
     0
  9
$DIMDSEP
 70
    44
  9
$DIMATFIT
 70
     3
  9
$DIMFRAC
 70
     0
  9
$DIMLDRBLK
  1

  9
$DIMLUNIT
 70
     2
  9
$DIMLWD
 70
    -2
  9
$DIMLWE
 70
    -2
  9
$DIMTMOVE
 70
     0
  9
$LUNITS
 70
     2
  9
$LUPREC
 70
     2
  9
$SKETCHINC
 40
1.0
  9
$FILLETRAD
 40
10.0
  9
$AUNITS
 70
     0
  9
$AUPREC
 70
     2
  9
$MENU
  1
.
  9
$ELEVATION
 40
0.0
  9
$PELEVATION
 40
0.0
  9
$THICKNESS
 40
0.0
  9
$LIMCHECK
 70
     0
  9
$CHAMFERA
 40
0.0
  9
$CHAMFERB
 40
0.0
  9
$CHAMFERC
 40
0.0
  9
$CHAMFERD
 40
0.0
  9
$SKPOLY
 70
     0
  9
$TDCREATE
 40
2460643.546924178
  9
$TDUCREATE
 40
2460643.421924178
  9
$TDUPDATE
 40
2460643.54692441
  9
$TDUUPDATE
 40
2460643.42192441
  9
$TDINDWG
 40
0.0000000116
  9
$TDUSRTIMER
 40
0.0000000116
  9
$USRTIMER
 70
     1
  9
$ANGBASE
 50
0.0
  9
$ANGDIR
 70
     0
  9
$PDMODE
 70
     0
  9
$PDSIZE
 40
-1.0
  9
$PLINEWID
 40
0.0
  9
$SPLFRAME
 70
     0
  9
$SPLINETYPE
 70
     6
  9
$SPLINESEGS
 70
     8
  9
$HANDSEED
  5
ED
  9
$SURFTAB1
 70
     6
  9
$SURFTAB2
 70
     6
  9
$SURFTYPE
 70
     6
  9
$SURFU
 70
     6
  9
$SURFV
 70
     6
  9
$UCSBASE
  2

  9
$UCSNAME
  2

  9
$UCSORG
 10
0.0
 20
0.0
 30
0.0
  9
$UCSXDIR
 10
1.0
 20
0.0
 30
0.0
  9
$UCSYDIR
 10
0.0
 20
1.0
 30
0.0
  9
$UCSORTHOREF
  2

  9
$UCSORTHOVIEW
 70
     0
  9
$UCSORGTOP
 10
0.0
 20
0.0
 30
0.0
  9
$UCSORGBOTTOM
 10
0.0
 20
0.0
 30
0.0
  9
$UCSORGLEFT
 10
0.0
 20
0.0
 30
0.0
  9
$UCSORGRIGHT
 10
0.0
 20
0.0
 30
0.0
  9
$UCSORGFRONT
 10
0.0
 20
0.0
 30
0.0
  9
$UCSORGBACK
 10
0.0
 20
0.0
 30
0.0
  9
$PUCSBASE
  2

  9
$PUCSNAME
  2

  9
$PUCSORG
 10
0.0
 20
0.0
 30
0.0
  9
$PUCSXDIR
 10
1.0
 20
0.0
 30
0.0
  9
$PUCSYDIR
 10
0.0
 20
1.0
 30
0.0
  9
$PUCSORTHOREF
  2

  9
$PUCSORTHOVIEW
 70
     0
  9
$PUCSORGTOP
 10
0.0
 20
0.0
 30
0.0
  9
$PUCSORGBOTTOM
 10
0.0
 20
0.0
 30
0.0
  9
$PUCSORGLEFT
 10
0.0
 20
0.0
 30
0.0
  9
$PUCSORGRIGHT
 10
0.0
 20
0.0
 30
0.0
  9
$PUCSORGFRONT
 10
0.0
 20
0.0
 30
0.0
  9
$PUCSORGBACK
 10
0.0
 20
0.0
 30
0.0
  9
$USERI1
 70
     0
  9
$USERI2
 70
     0
  9
$USERI3
 70
     0
  9
$USERI4
 70
     0
  9
$USERI5
 70
     0
  9
$USERR1
 40
0.0
  9
$USERR2
 40
0.0
  9
$USERR3
 40
0.0
  9
$USERR4
 40
0.0
  9
$USERR5
 40
0.0
  9
$WORLDVIEW
 70
     1
  9
$SHADEDGE
 70
     3
  9
$SHADEDIF
 70
    70
  9
$TILEMODE
 70
     1
  9
$MAXACTVP
 70
    64
  9
$PINSBASE
 10
0.0
 20
0.0
 30
0.0
  9
$PLIMCHECK
 70
     0
  9
$PEXTMIN
 10
1.0000000000E+20
 20
1.0000000000E+20
 30
1.0000000000E+20
  9
$PEXTMAX
 10
-1.0000000000E+20
 20
-1.0000000000E+20
 30
-1.0000000000E+20
  9
$PLIMMIN
 10
0.0
 20
0.0
  9
$PLIMMAX
 10
420.0
 20
297.0
  9
$UNITMODE
 70
     0
  9
$VISRETAIN
 70
     1
  9
$PLINEGEN
 70
     0
  9
$PSLTSCALE
 70
     1
  9
$TREEDEPTH
 70
  3020
  9
$CMLSTYLE
  2
Standard
  9
$CMLJUST
 70
     0
  9
$CMLSCALE
 40
20.0
  9
$PROXYGRAPHICS
 70
     1
  9
$MEASUREMENT
 70
     1
  9
$CELWEIGHT
370
    -1
  9
$ENDCAPS
280
     0
  9
$JOINSTYLE
280
     0
  9
$LWDISPLAY
290
     1
  9
$INSUNITS
 70
     4
  9
$HYPERLINKBASE
  1

  9
$STYLESHEET
  1

  9
$XEDIT
290
     1
  9
$CEPSNTYPE
380
     0
  9
$PSTYLEMODE
290
     1
  9
$FINGERPRINTGUID
  2
{859fef4c-aa9f-4647-b056-0cf541c2b97b}
  9
$VERSIONGUID
  2
{FAEB1C32-E019-11D5-929B-00C0DF256EC4}
  9
$EXTNAMES
290
     1
  9
$PSVPSCALE
 40
0.0
  9
$OLESTARTUP
290
     0
  0
ENDSEC
  0
SECTION
  2
CLASSES
  0
CLASS
  1
ACDBDICTIONARYWDFLT
  2
AcDbDictionaryWithDefault
  3
ObjectDBX Classes
 90
        0
280
     0
281
     0
  0
CLASS
  1
VISUALSTYLE
  2
AcDbVisualStyle
  3
ObjectDBX Classes
 90
     4095
280
     0
281
     0
  0
CLASS
  1
MATERIAL
  2
AcDbMaterial
  3
ObjectDBX Classes
 90
     1153
280
     0
281
     0
  0
CLASS
  1
SCALE
  2
AcDbScale
  3
ObjectDBX Classes
 90
     1153
280
     0
281
     0
  0
CLASS
  1
TABLESTYLE
  2
AcDbTableStyle
  3
ObjectDBX Classes
 90
     4095
280
     0
281
     0
  0
CLASS
  1
MLEADERSTYLE
  2
AcDbMLeaderStyle
  3
ACDB_MLEADERSTYLE_CLASS
 90
     4095
280
     0
281
     0
  0
CLASS
  1
SUN
  2
AcDbSun
  3
SCENEOE
 90
     1153
280
     0
281
     0
  0
CLASS
  1
ACDBPLACEHOLDER
  2
AcDbPlaceHolder
  3
ObjectDBX Classes
 90
        0
280
     0
281
     0
  0
CLASS
  1
LAYOUT
  2
AcDbLayout
  3
ObjectDBX Classes
 90
        0
280
     0
281
     0
  0
ENDSEC
  0
SECTION
  2
TABLES
  0
TABLE
  2
VPORT
  5
8
330
0
100
AcDbSymbolTable
 70
     1
  0
VPORT
  5
29
330
8
100
AcDbSymbolTableRecord
100
AcDbViewportTableRecord
  2
*Active
 70
     0
 10
0.0
 20
0.0
 11
1.0
 21
1.0
 12
139.7
 22
107.95
 13
0.0
 23
0.0
 14
10.0
 24
10.0
 15
10.0
 25
10.0
 16
0.0
 26
0.0
 36
1.0
 17
0.0
 27
0.0
 37
0.0
 40
215.9
 41
1.2941176471
 42
50.0
 43
0.0
 44
0.0
 50
0.0
 51
0.0
 71
     0
 72
  2000
 73
     1
 74
     3
 75
     0
 76
     0
 77
     0
 78
     0
281
     0
 65
     1
110
0.0
120
0.0
130
0.0
111
1.0
121
0.0
131
0.0
112
0.0
122
1.0
132
0.0
 79
     0
146
0.0
  0
ENDTAB
  0
TABLE
  2
LTYPE
  5
5
330
0
100
AcDbSymbolTable
 70
     6
  0
LTYPE
  5
14
330
5
100
AcDbSymbolTableRecord
100
AcDbLinetypeTableRecord
  2
ByBlock
 70
     0
  3

 72
    65
 73
     0
 40
0.0
  0
LTYPE
  5
15
330
5
100
AcDbSymbolTableRecord
100
AcDbLinetypeTableRecord
  2
ByLayer
 70
     0
  3

 72
    65
 73
     0
 40
0.0
  0
LTYPE
  5
16
330
5
100
AcDbSymbolTableRecord
100
AcDbLinetypeTableRecord
  2
Continuous
 70
     0
  3
Solid line
 72
    65
 73
     0
 40
0.0
  0
LTYPE
  5
6E
330
5
100
AcDbSymbolTableRecord
100
AcDbLinetypeTableRecord
  2
HIDDEN
 70
     0
  3
Hidden __ __ __ __ __ __ __ __ __ __ __ __ __ __
 72
    65
 73
     2
 40
1.905
 49
1.27
 74
     0
 49
-0.635
 74
     0
  0
LTYPE
  5
6F
330
5
100
AcDbSymbolTableRecord
100
AcDbLinetypeTableRecord
  2
PHANTOM
 70
     0
  3
Phantom ______  __  __  ______  __  __  ______
 72
    65
 73
     6
 40
12.7
 49
6.35
 74
     0
 49
-1.27
 74
     0
 49
1.27
 74
     0
 49
-1.27
 74
     0
 49
1.27
 74
     0
 49
-1.27
 74
     0
  0
LTYPE
  5
70
330
5
100
AcDbSymbolTableRecord
100
AcDbLinetypeTableRecord
  2
CENTER
 70
     0
  3
Center ____ _ ____ _ ____ _ ____ _ ____ _ ____
 72
    65
 73
     4
 40
10.16
 49
6.35
 74
     0
 49
-1.27
 74
     0
 49
1.27
 74
     0
 49
-1.27
 74
     0
  0
LTYPE
  5
71
330
5
100
AcDbSymbolTableRecord
100
AcDbLinetypeTableRecord
  2
CENTERX2
 70
     0
  3
Center (2x) ________  __  ________  __  _____
 72
    65
 73
     4
 40
20.32
 49
12.7
 74
     0
 49
-2.54
 74
     0
 49
2.54
 74
     0
 49
-2.54
 74
     0
  0
LTYPE
  5
72
330
5
100
AcDbSymbolTableRecord
100
AcDbLinetypeTableRecord
  2
DOT2
 70
     0
  3
Dot (.5x) ........................................
 72
    65
 73
     2
 40
0.635
 49
0.0
 74
     0
 49
-0.635
 74
     0
  0
ENDTAB
  0
TABLE
  2
LAYER
  5
2
330
0
100
AcDbSymbolTable
 70
    17
  0
LAYER
  5
10
330
2
100
AcDbSymbolTableRecord
100
AcDbLayerTableRecord
  2
0
 70
     0
 62
     7
  6
Continuous
370
    -3
390
F
  0
LAYER
  5
73
330
2
100
AcDbSymbolTableRecord
100
AcDbLayerTableRecord
  2
FORMAT
 70
     0
 62
     7
  6
Continuous
370
    -3
390
F
  0
LAYER
  5
74
330
2
100
AcDbSymbolTableRecord
100
AcDbLayerTableRecord
  2
YARDIMCI_GEOMETRI
 70
     0
 62
    -6
  6
Continuous
290
     0
370
    -3
390
F
  0
LAYER
  5
75
330
2
100
AcDbSymbolTableRecord
100
AcDbLayerTableRecord
  2
SAYFA_CERCEVESI
 70
     0
 62
     7
  6
Continuous
370
    25
390
F
  0
LAYER
  5
76
330
2
100
AcDbSymbolTableRecord
100
AcDbLayerTableRecord
  2
ANTET
 70
     0
 62
     7
  6
Continuous
370
    -3
390
F
  0
LAYER
  5
77
330
2
100
AcDbSymbolTableRecord
100
AcDbLayerTableRecord
  2
OLCU
 70
     0
 62
   150
  6
Continuous
370
    -3
390
F
  0
LAYER
  5
78
330
2
100
AcDbSymbolTableRecord
100
AcDbLayerTableRecord
  2
METIN
 70
     0
 62
    96
  6
Continuous
370
    -3
390
F
  0
LAYER
  5
79
330
2
100
AcDbSymbolTableRecord
100
AcDbLayerTableRecord
  2
BALON
 70
     0
 62
     5
  6
Continuous
370
    -3
390
F
  0
LAYER
  5
7A
330
2
100
AcDbSymbolTableRecord
100
AcDbLayerTableRecord
  2
VURGU
 70
     0
 62
     7
  6
Continuous
370
    -3
390
F
  0
LAYER
  5
7B
330
2
100
AcDbSymbolTableRecord
100
AcDbLayerTableRecord
  2
SILIK
 70
     0
 62
     7
  6
Continuous
370
    -3
390
F
  0
LAYER
  5
7C
330
2
100
AcDbSymbolTableRecord
100
AcDbLayerTableRecord
  2
MODEL
 70
     0
 62
     7
  6
Continuous
370
    -3
390
F
  0
LAYER
  5
7D
330
2
100
AcDbSymbolTableRecord
100
AcDbLayerTableRecord
  2
DETAYLANDıRMA
 70
     0
 62
   190
  6
Continuous
370
    -3
390
F
  0
LAYER
  5
7E
330
2
100
AcDbSymbolTableRecord
100
AcDbLayerTableRecord
  2
TOLERANS
 70
     0
 62
   230
  6
Continuous
370
    -3
390
F
  0
LAYER
  5
7F
330
2
100
AcDbSymbolTableRecord
100
AcDbLayerTableRecord
  2
MERKEZ_CIZGILERI
 70
     0
 62
    30
  6
Continuous
370
    -3
390
F
  0
LAYER
  5
80
330
2
100
AcDbSymbolTableRecord
100
AcDbLayerTableRecord
  2
KESIT-DETAY_CIZGILERI
 70
     0
 62
     7
  6
Continuous
370
    -3
390
F
  0
LAYER
  5
81
330
2
100
AcDbSymbolTableRecord
100
AcDbLayerTableRecord
  2
\U+041E\U+0421\U+0415\U+0412\U+042B\U+0415
 70
     0
 62
     7
  6
Continuous
370
    -3
390
F
  0
LAYER
  5
82
330
2
100
AcDbSymbolTableRecord
100
AcDbLayerTableRecord
  2
\U+0412\U+041E\U+0414\U+042F\U+041D\U+042B\U+0415_\U+0417\U+041D\U+0410\U+041A\U+0418
 70
     0
 62
    11
  6
Continuous
370
    -3
390
F
  0
ENDTAB
  0
TABLE
  2
STYLE
  5
3
330
0
100
AcDbSymbolTable
 70
     1
  0
STYLE
  5
11
330
3
100
AcDbSymbolTableRecord
100
AcDbTextStyleTableRecord
  2
Standard
 70
     0
 40
0.0
 41
1.0
 50
0.0
 71
     0
 42
3.5
  3
txt
  4

  0
ENDTAB
  0
TABLE
  2
VIEW
  5
6
330
0
100
AcDbSymbolTable
 70
     0
  0
ENDTAB
  0
TABLE
  2
UCS
  5
7
330
0
100
AcDbSymbolTable
 70
     0
  0
ENDTAB
  0
TABLE
  2
APPID
  5
9
330
0
100
AcDbSymbolTable
 70
     1
  0
APPID
  5
12
330
9
100
AcDbSymbolTableRecord
100
AcDbRegAppTableRecord
  2
ACAD
 70
     0
  0
ENDTAB
  0
TABLE
  2
DIMSTYLE
  5
A
330
0
100
AcDbSymbolTable
 70
     1
100
AcDbDimStyleTable
  0
DIMSTYLE
105
27
330
A
100
AcDbSymbolTableRecord
100
AcDbDimStyleTableRecord
  2
ISO-25
 70
     0
 41
2.5
 42
0.625
 43
3.75
 44
1.25
 73
     0
 74
     0
 77
     1
 78
     8
140
2.5
141
2.5
143
0.0393700787
147
0.625
171
     3
172
     1
178
     0
271
     2
272
     2
274
     3
278
    44
283
     0
284
     8
340
11
  0
ENDTAB
  0
TABLE
  2
BLOCK_RECORD
  5
1
330
0
100
AcDbSymbolTable
 70
     2
  0
BLOCK_RECORD
  5
1F
330
1
100
AcDbSymbolTableRecord
100
AcDbBlockTableRecord
  2
*Model_Space
340
22
  0
BLOCK_RECORD
  5
1B
330
1
100
AcDbSymbolTableRecord
100
AcDbBlockTableRecord
  2
*Paper_Space
340
1E
  0
BLOCK_RECORD
  5
23
330
1
100
AcDbSymbolTableRecord
100
AcDbBlockTableRecord
  2
*Paper_Space0
340
26
  0
BLOCK_RECORD
  5
88
330
1
100
AcDbSymbolTableRecord
100
AcDbBlockTableRecord
  2
SW_CENTERMARKSYMBOL_0
340
0
102
{BLKREFS
331
93
102
}
  0
ENDTAB
  0
ENDSEC
  0
SECTION
  2
BLOCKS
  0
BLOCK
  5
20
330
1F
100
AcDbEntity
  8
0
100
AcDbBlockBegin
  2
*Model_Space
 70
     0
 10
0.0
 20
0.0
 30
0.0
  3
*Model_Space
  1

  0
ENDBLK
  5
21
330
1F
100
AcDbEntity
  8
0
100
AcDbBlockEnd
  0
BLOCK
  5
1C
330
1B
100
AcDbEntity
 67
     1
  8
0
100
AcDbBlockBegin
  2
*Paper_Space
 70
     0
 10
0.0
 20
0.0
 30
0.0
  3
*Paper_Space
  1

  0
ENDBLK
  5
1D
330
1B
100
AcDbEntity
 67
     1
  8
0
100
AcDbBlockEnd
  0
BLOCK
  5
24
330
23
100
AcDbEntity
  8
0
100
AcDbBlockBegin
  2
*Paper_Space0
 70
     0
 10
0.0
 20
0.0
 30
0.0
  3
*Paper_Space0
  1

  0
ENDBLK
  5
25
330
23
100
AcDbEntity
  8
0
100
AcDbBlockEnd
  0
BLOCK
  5
89
330
88
100
AcDbEntity
  8
0
100
AcDbBlockBegin
  2
SW_CENTERMARKSYMBOL_0
 70
     0
 10
0.0
 20
0.0
 30
0.0
  3
SW_CENTERMARKSYMBOL_0
  1

  0
LINE
  5
8B
330
88
100
AcDbEntity
  8
FORMAT
 62
     0
100
AcDbLine
 10
0.0
 20
0.0
 30
0.0
 11
0.0
 21
2.5
 31
0.0
  0
LINE
  5
8C
330
88
100
AcDbEntity
  8
FORMAT
 62
     0
100
AcDbLine
 10
0.0
 20
0.0
 30
0.0
 11
-2.5
 21
0.0
 31
0.0
  0
LINE
  5
8D
330
88
100
AcDbEntity
  8
FORMAT
 62
     0
100
AcDbLine
 10
0.0
 20
0.0
 30
0.0
 11
0.0
 21
-2.5
 31
0.0
  0
LINE
  5
8E
330
88
100
AcDbEntity
  8
FORMAT
 62
     0
100
AcDbLine
 10
0.0
 20
0.0
 30
0.0
 11
2.5
 21
0.0
 31
0.0
  0
LINE
  5
8F
330
88
100
AcDbEntity
  8
FORMAT
 62
     0
100
AcDbLine
 10
0.0
 20
5.0
 30
0.0
 11
0.0
 21
57.5
 31
0.0
  0
LINE
  5
90
330
88
100
AcDbEntity
  8
FORMAT
 62
     0
100
AcDbLine
 10
-5.0
 20
0.0
 30
0.0
 11
-57.5
 21
0.0
 31
0.0
  0
LINE
  5
91
330
88
100
AcDbEntity
  8
FORMAT
 62
     0
100
AcDbLine
 10
0.0
 20
-5.0
 30
0.0
 11
0.0
 21
-57.5
 31
0.0
  0
LINE
  5
92
330
88
100
AcDbEntity
  8
FORMAT
 62
     0
100
AcDbLine
 10
5.0
 20
0.0
 30
0.0
 11
57.5
 21
0.0
 31
0.0
  0
ENDBLK
  5
8A
330
88
100
AcDbEntity
  8
0
100
AcDbBlockEnd
  0
ENDSEC
  0
SECTION
  2
ENTITIES
  0
CIRCLE
  5
83
330
1F
100
AcDbEntity
  8
0
  6
Continuous
 62
     7
370
    25
100
AcDbCircle
 10
136.0804557792
 20
118.8813202377
 30
0.0
 40
54.99999999999997
  0
CIRCLE
  5
84
330
1F
100
AcDbEntity
  8
0
  6
Continuous
 62
     7
370
    25
100
AcDbCircle
 10
136.0804557792
 20
118.8813202377
 30
0.0
 40
48.39999999999998
  0
CIRCLE
  5
85
330
1F
100
AcDbEntity
  8
0
  6
Continuous
 62
     7
370
    25
100
AcDbCircle
 10
136.0804557792
 20
118.8813202377
 30
0.0
 40
48.01049818933411
  0
CIRCLE
  5
86
330
1F
100
AcDbEntity
  8
0
  6
Continuous
 62
     7
370
    25
100
AcDbCircle
 10
136.0804557792
 20
118.8813202377
 30
0.0
 40
28.08950181066584
  0
CIRCLE
  5
87
330
1F
100
AcDbEntity
  8
0
  6
Continuous
 62
     7
370
    25
100
AcDbCircle
 10
136.0804557792
 20
118.8813202377
 30
0.0
 40
27.69999999999999
  0
INSERT
  5
93
330
1F
100
AcDbEntity
  8
FORMAT
 62
     7
100
AcDbBlockReference
  2
SW_CENTERMARKSYMBOL_0
 10
136.0804557792
 20
118.8813202377
 30
0.0
  0
ARC
  5
94
330
1F
100
AcDbEntity
  8
0
  6
Continuous
 62
     7
370
    25
100
AcDbCircle
 10
-122.6190009208
 20
171.8813202377
 30
0.0
 40
2.0
100
AcDbArc
 50
67.2349908925
 51
90.0
  0
ARC
  5
95
330
1F
100
AcDbEntity
  8
0
  6
Continuous
 62
     7
370
    25
100
AcDbCircle
 10
-122.6190009208
 20
65.8813202377
 30
0.0
 40
2.000000000000012
100
AcDbArc
 50
270.0
 51
292.7650091075
  0
LINE
  5
96
330
1F
100
AcDbEntity
  8
0
  6
Continuous
 62
     7
370
    25
100
AcDbLine
 10
-122.6190009208
 20
173.8813202377
 30
0.0
 11
-209.2163656786
 21
173.8813202377
 31
0.0
  0
LINE
  5
97
330
1F
100
AcDbEntity
  8
0
  6
Continuous
 62
     7
370
    25
100
AcDbLine
 10
-209.2163656786
 20
63.8813202377
 30
0.0
 11
-122.6190009208
 21
63.8813202377
 31
0.0
  0
LINE
  5
98
330
1F
100
AcDbEntity
  8
0
  6
Continuous
 62
     7
370
    25
100
AcDbLine
 10
-121.8450958676
 20
64.037120962
 30
0.0
 11
-66.5876354896
 21
87.2255195134
 31
0.0
  0
LINE
  5
99
330
1F
100
AcDbEntity
  8
0
  6
Continuous
 62
     7
370
    25
100
AcDbLine
 10
-66.5876354896
 20
150.537120962
 30
0.0
 11
-121.8450958676
 21
173.7255195134
 31
0.0
  0
ARC
  5
9A
330
1F
100
AcDbEntity
  8
0
  6
Continuous
 62
     7
370
    25
100
AcDbCircle
 10
-65.8137304364
 20
152.3813202377
 30
0.0
 40
2.000000000000044
100
AcDbArc
 50
247.2349908925
 51
270.0
  0
ARC
  5
9B
330
1F
100
AcDbEntity
  8
0
  6
Continuous
 62
     7
370
    25
100
AcDbCircle
 10
-65.8137304364
 20
85.3813202377
 30
0.0
 40
2.000000000000004
100
AcDbArc
 50
90.0
 51
112.7650091075
  0
LINE
  5
9C
330
1F
100
AcDbEntity
  8
0
  6
Continuous
 62
     7
370
    25
100
AcDbLine
 10
0.7836343214
 20
150.3813202377
 30
0.0
 11
-65.8137304364
 21
150.3813202377
 31
0.0
  0
LINE
  5
9D
330
1F
100
AcDbEntity
  8
0
  6
Continuous
 62
     7
370
    25
100
AcDbLine
 10
-65.8137304364
 20
87.3813202377
 30
0.0
 11
0.7836343214
 21
87.3813202377
 31
0.0
  0
LINE
  5
9E
330
1F
100
AcDbEntity
  8
0
  6
Continuous
 62
     7
370
    25
100
AcDbLine
 10
-209.2163656786
 20
173.8813202377
 30
0.0
 11
-209.2163656786
 21
63.8813202377
 31
0.0
  0
LINE
  5
9F
330
1F
100
AcDbEntity
  8
0
  6
Continuous
 62
     7
370
    25
100
AcDbLine
 10
0.7836343214
 20
150.3813202377
 30
0.0
 11
0.7836343214
 21
87.3813202377
 31
0.0
  0
LINE
  5
A0
330
1F
100
AcDbEntity
  8
0
  6
Continuous
 62
     1
370
    25
100
AcDbLine
 10
-121.8450958676
 20
173.7255195134
 30
0.0
 11
-121.8450958676
 21
64.037120962
 31
0.0
  0
LINE
  5
A1
330
1F
100
AcDbEntity
  8
0
  6
Continuous
 62
     1
370
    25
100
AcDbLine
 10
-122.6190009208
 20
173.8813202377
 30
0.0
 11
-122.6190009208
 21
63.8813202377
 31
0.0
  0
LINE
  5
A2
330
1F
100
AcDbEntity
  8
0
  6
Continuous
 62
     1
370
    25
100
AcDbLine
 10
-66.5876354896
 20
150.537120962
 30
0.0
 11
-66.5876354896
 21
87.2255195134
 31
0.0
  0
LINE
  5
A3
330
1F
100
AcDbEntity
  8
0
  6
Continuous
 62
     1
370
    25
100
AcDbLine
 10
-65.8137304364
 20
150.3813202377
 30
0.0
 11
-65.8137304364
 21
87.3813202377
 31
0.0
  0
ARC
  5
A4
330
1F
100
AcDbEntity
  8
0
  6
Continuous
 62
     7
370
    25
100
AcDbCircle
 10
189.0804557792
 20
331.0943398515
 30
0.0
 40
2.0
100
AcDbArc
 50
337.2349908925
 51
0.0
  0
ARC
  5
A5
330
1F
100
AcDbEntity
  8
0
  6
Continuous
 62
     7
370
    25
100
AcDbCircle
 10
83.0804557792
 20
331.0943398515
 30
0.0
 40
2.0
100
AcDbArc
 50
180.0
 51
202.7650091075
  0
LINE
  5
A6
330
1F
100
AcDbEntity
  8
0
  6
Continuous
 62
     7
370
    25
100
AcDbLine
 10
191.0804557792
 20
331.0943398515
 30
0.0
 11
191.0804557792
 21
417.6917046093
 31
0.0
  0
LINE
  5
A7
330
1F
100
AcDbEntity
  8
0
  6
Continuous
 62
     7
370
    25
100
AcDbLine
 10
81.0804557792
 20
417.6917046093
 30
0.0
 11
81.0804557792
 21
331.0943398515
 31
0.0
  0
LINE
  5
A8
330
1F
100
AcDbEntity
  8
0
  6
Continuous
 62
     7
370
    25
100
AcDbLine
 10
81.2362565035
 20
330.3204347983
 30
0.0
 11
104.4246550549
 21
275.0629744203
 31
0.0
  0
LINE
  5
A9
330
1F
100
AcDbEntity
  8
0
  6
Continuous
 62
     7
370
    25
100
AcDbLine
 10
167.7362565035
 20
275.0629744203
 30
0.0
 11
190.9246550549
 21
330.3204347983
 31
0.0
  0
ARC
  5
AA
330
1F
100
AcDbEntity
  8
0
  6
Continuous
 62
     7
370
    25
100
AcDbCircle
 10
169.5804557792
 20
274.2890693671
 30
0.0
 40
2.000000000000012
100
AcDbArc
 50
157.2349908925
 51
180.0
  0
ARC
  5
AB
330
1F
100
AcDbEntity
  8
0
  6
Continuous
 62
     7
370
    25
100
AcDbCircle
 10
102.5804557792
 20
274.2890693671
 30
0.0
 40
2.0
100
AcDbArc
 50
0.0
 51
22.7650091075
  0
LINE
  5
AC
330
1F
100
AcDbEntity
  8
0
  6
Continuous
 62
     7
370
    25
100
AcDbLine
 10
167.5804557792
 20
207.6917046093
 30
0.0
 11
167.5804557792
 21
274.2890693671
 31
0.0
  0
LINE
  5
AD
330
1F
100
AcDbEntity
  8
0
  6
Continuous
 62
     7
370
    25
100
AcDbLine
 10
104.5804557792
 20
274.2890693671
 30
0.0
 11
104.5804557792
 21
207.6917046093
 31
0.0
  0
LINE
  5
AE
330
1F
100
AcDbEntity
  8
0
  6
Continuous
 62
     7
370
    25
100
AcDbLine
 10
191.0804557792
 20
417.6917046093
 30
0.0
 11
81.0804557792
 21
417.6917046093
 31
0.0
  0
LINE
  5
AF
330
1F
100
AcDbEntity
  8
0
  6
Continuous
 62
     7
370
    25
100
AcDbLine
 10
167.5804557792
 20
207.6917046093
 30
0.0
 11
104.5804557792
 21
207.6917046093
 31
0.0
  0
LINE
  5
B0
330
1F
100
AcDbEntity
  8
0
  6
Continuous
 62
     1
370
    25
100
AcDbLine
 10
190.9246550549
 20
330.3204347983
 30
0.0
 11
81.2362565035
 21
330.3204347983
 31
0.0
  0
LINE
  5
B1
330
1F
100
AcDbEntity
  8
0
  6
Continuous
 62
     1
370
    25
100
AcDbLine
 10
191.0804557792
 20
331.0943398515
 30
0.0
 11
81.0804557792
 21
331.0943398515
 31
0.0
  0
LINE
  5
B2
330
1F
100
AcDbEntity
  8
0
  6
Continuous
 62
     1
370
    25
100
AcDbLine
 10
167.7362565035
 20
275.0629744203
 30
0.0
 11
104.4246550549
 21
275.0629744203
 31
0.0
  0
LINE
  5
B3
330
1F
100
AcDbEntity
  8
0
  6
Continuous
 62
     1
370
    25
100
AcDbLine
 10
167.5804557792
 20
274.2890693671
 30
0.0
 11
104.5804557792
 21
274.2890693671
 31
0.0
  0
ARC
  5
B4
330
1F
100
AcDbEntity
  8
0
  6
Continuous
 62
     7
370
    25
100
AcDbCircle
 10
396.8206701809
 20
65.8813202377
 30
0.0
 40
2.000000000000034
100
AcDbArc
 50
247.2349908925
 51
270.0
  0
ARC
  5
B5
330
1F
100
AcDbEntity
  8
0
  6
Continuous
 62
     7
370
    25
100
AcDbCircle
 10
396.8206701809
 20
171.8813202377
 30
0.0
 40
2.000000000000008
100
AcDbArc
 50
90.0
 51
112.7650091075
  0
LINE
  5
B6
330
1F
100
AcDbEntity
  8
0
  6
Continuous
 62
     7
370
    25
100
AcDbLine
 10
396.8206701809
 20
63.8813202377
 30
0.0
 11
483.4180349387
 21
63.8813202377
 31
0.0
  0
LINE
  5
B7
330
1F
100
AcDbEntity
  8
0
  6
Continuous
 62
     7
370
    25
100
AcDbLine
 10
483.4180349387
 20
173.8813202377
 30
0.0
 11
396.8206701809
 21
173.8813202377
 31
0.0
  0
LINE
  5
B8
330
1F
100
AcDbEntity
  8
0
  6
Continuous
 62
     7
370
    25
100
AcDbLine
 10
396.0467651277
 20
173.7255195134
 30
0.0
 11
340.7893047497
 21
150.537120962
 31
0.0
  0
LINE
  5
B9
330
1F
100
AcDbEntity
  8
0
  6
Continuous
 62
     7
370
    25
100
AcDbLine
 10
340.7893047497
 20
87.2255195134
 30
0.0
 11
396.0467651277
 21
64.037120962
 31
0.0
  0
ARC
  5
BA
330
1F
100
AcDbEntity
  8
0
  6
Continuous
 62
     7
370
    25
100
AcDbCircle
 10
340.0153996965
 20
85.3813202377
 30
0.0
 40
2.00000000000002
100
AcDbArc
 50
67.2349908925
 51
90.0
  0
ARC
  5
BB
330
1F
100
AcDbEntity
  8
0
  6
Continuous
 62
     7
370
    25
100
AcDbCircle
 10
340.0153996965
 20
152.3813202377
 30
0.0
 40
2.00000000000006
100
AcDbArc
 50
270.0
 51
292.7650091075
  0
LINE
  5
BC
330
1F
100
AcDbEntity
  8
0
  6
Continuous
 62
     7
370
    25
100
AcDbLine
 10
273.4180349387
 20
87.3813202377
 30
0.0
 11
340.0153996965
 21
87.3813202377
 31
0.0
  0
LINE
  5
BD
330
1F
100
AcDbEntity
  8
0
  6
Continuous
 62
     7
370
    25
100
AcDbLine
 10
340.0153996965
 20
150.3813202377
 30
0.0
 11
273.4180349387
 21
150.3813202377
 31
0.0
  0
LINE
  5
BE
330
1F
100
AcDbEntity
  8
0
  6
Continuous
 62
     7
370
    25
100
AcDbLine
 10
483.4180349387
 20
118.8813202377
 30
0.0
 11
483.4180349387
 21
173.8813202377
 31
0.0
  0
LINE
  5
BF
330
1F
100
AcDbEntity
  8
0
  6
Continuous
 62
     7
370
    25
100
AcDbLine
 10
483.4180349387
 20
63.8813202377
 30
0.0
 11
483.4180349387
 21
118.8813202377
 31
0.0
  0
LINE
  5
C0
330
1F
100
AcDbEntity
  8
0
  6
Continuous
 62
     7
370
    25
100
AcDbLine
 10
273.4180349387
 20
118.8813202377
 30
0.0
 11
273.4180349387
 21
150.3813202377
 31
0.0
  0
LINE
  5
C1
330
1F
100
AcDbEntity
  8
0
  6
Continuous
 62
     7
370
    25
100
AcDbLine
 10
273.4180349387
 20
87.3813202377
 30
0.0
 11
273.4180349387
 21
118.8813202377
 31
0.0
  0
LINE
  5
C2
330
1F
100
AcDbEntity
  8
0
  6
Continuous
 62
     1
370
    25
100
AcDbLine
 10
396.0467651277
 20
118.8813202377
 30
0.0
 11
396.0467651277
 21
173.7255195134
 31
0.0
  0
LINE
  5
C3
330
1F
100
AcDbEntity
  8
0
  6
Continuous
 62
     1
370
    25
100
AcDbLine
 10
396.0467651277
 20
64.037120962
 30
0.0
 11
396.0467651277
 21
118.8813202377
 31
0.0
  0
LINE
  5
C4
330
1F
100
AcDbEntity
  8
0
  6
Continuous
 62
     1
370
    25
100
AcDbLine
 10
396.8206701809
 20
118.8813202377
 30
0.0
 11
396.8206701809
 21
173.8813202377
 31
0.0
  0
LINE
  5
C5
330
1F
100
AcDbEntity
  8
0
  6
Continuous
 62
     1
370
    25
100
AcDbLine
 10
396.8206701809
 20
63.8813202377
 30
0.0
 11
396.8206701809
 21
118.8813202377
 31
0.0
  0
LINE
  5
C6
330
1F
100
AcDbEntity
  8
0
  6
Continuous
 62
     1
370
    25
100
AcDbLine
 10
340.7893047497
 20
118.8813202377
 30
0.0
 11
340.7893047497
 21
150.537120962
 31
0.0
  0
LINE
  5
C7
330
1F
100
AcDbEntity
  8
0
  6
Continuous
 62
     1
370
    25
100
AcDbLine
 10
340.7893047497
 20
87.2255195134
 30
0.0
 11
340.7893047497
 21
118.8813202377
 31
0.0
  0
LINE
  5
C8
330
1F
100
AcDbEntity
  8
0
  6
Continuous
 62
     1
370
    25
100
AcDbLine
 10
340.0153996965
 20
118.8813202377
 30
0.0
 11
340.0153996965
 21
150.3813202377
 31
0.0
  0
LINE
  5
C9
330
1F
100
AcDbEntity
  8
0
  6
Continuous
 62
     1
370
    25
100
AcDbLine
 10
340.0153996965
 20
87.3813202377
 30
0.0
 11
340.0153996965
 21
118.8813202377
 31
0.0
  0
ARC
  5
CA
330
1F
100
AcDbEntity
  8
0
  6
Continuous
 62
     7
370
    25
100
AcDbCircle
 10
83.0804557792
 20
-119.9826566641
 30
0.0
 40
2.0
100
AcDbArc
 50
157.2349908925
 51
180.0
  0
ARC
  5
CB
330
1F
100
AcDbEntity
  8
0
  6
Continuous
 62
     7
370
    25
100
AcDbCircle
 10
189.0804557792
 20
-119.9826566641
 30
0.0
 40
2.0
100
AcDbArc
 50
0.0
 51
22.7650091075
  0
LINE
  5
CC
330
1F
100
AcDbEntity
  8
0
  6
Continuous
 62
     7
370
    25
100
AcDbLine
 10
81.0804557792
 20
-119.9826566641
 30
0.0
 11
81.0804557792
 21
-206.5800214219
 31
0.0
  0
LINE
  5
CD
330
1F
100
AcDbEntity
  8
0
  6
Continuous
 62
     7
370
    25
100
AcDbLine
 10
191.0804557792
 20
-206.5800214219
 30
0.0
 11
191.0804557792
 21
-119.9826566641
 31
0.0
  0
LINE
  5
CE
330
1F
100
AcDbEntity
  8
0
  6
Continuous
 62
     7
370
    25
100
AcDbLine
 10
190.9246550549
 20
-119.2087516109
 30
0.0
 11
167.7362565035
 21
-63.9512912329
 31
0.0
  0
LINE
  5
CF
330
1F
100
AcDbEntity
  8
0
  6
Continuous
 62
     7
370
    25
100
AcDbLine
 10
104.4246550549
 20
-63.9512912329
 30
0.0
 11
81.2362565035
 21
-119.2087516109
 31
0.0
  0
ARC
  5
D0
330
1F
100
AcDbEntity
  8
0
  6
Continuous
 62
     7
370
    25
100
AcDbCircle
 10
102.5804557792
 20
-63.1773861797
 30
0.0
 40
2.0
100
AcDbArc
 50
337.2349908925
 51
0.0
  0
ARC
  5
D1
330
1F
100
AcDbEntity
  8
0
  6
Continuous
 62
     7
370
    25
100
AcDbCircle
 10
169.5804557792
 20
-63.1773861797
 30
0.0
 40
2.000000000000012
100
AcDbArc
 50
180.0
 51
202.7650091075
  0
LINE
  5
D2
330
1F
100
AcDbEntity
  8
0
  6
Continuous
 62
     7
370
    25
100
AcDbLine
 10
104.5804557792
 20
3.4199785781
 30
0.0
 11
104.5804557792
 21
-63.1773861797
 31
0.0
  0
LINE
  5
D3
330
1F
100
AcDbEntity
  8
0
  6
Continuous
 62
     7
370
    25
100
AcDbLine
 10
167.5804557792
 20
-63.1773861797
 30
0.0
 11
167.5804557792
 21
3.4199785781
 31
0.0
  0
LINE
  5
D4
330
1F
100
AcDbEntity
  8
0
  6
Continuous
 62
     7
370
    25
100
AcDbLine
 10
81.0804557792
 20
-206.5800214219
 30
0.0
 11
191.0804557792
 21
-206.5800214219
 31
0.0
  0
LINE
  5
D5
330
1F
100
AcDbEntity
  8
0
  6
Continuous
 62
     7
370
    25
100
AcDbLine
 10
104.5804557792
 20
3.4199785781
 30
0.0
 11
167.5804557792
 21
3.4199785781
 31
0.0
  0
LINE
  5
D6
330
1F
100
AcDbEntity
  8
0
  6
Continuous
 62
     1
370
    25
100
AcDbLine
 10
81.2362565035
 20
-119.2087516109
 30
0.0
 11
190.9246550549
 21
-119.2087516109
 31
0.0
  0
LINE
  5
D7
330
1F
100
AcDbEntity
  8
0
  6
Continuous
 62
     1
370
    25
100
AcDbLine
 10
81.0804557792
 20
-119.9826566641
 30
0.0
 11
191.0804557792
 21
-119.9826566641
 31
0.0
  0
LINE
  5
D8
330
1F
100
AcDbEntity
  8
0
  6
Continuous
 62
     1
370
    25
100
AcDbLine
 10
104.4246550549
 20
-63.9512912329
 30
0.0
 11
167.7362565035
 21
-63.9512912329
 31
0.0
  0
LINE
  5
D9
330
1F
100
AcDbEntity
  8
0
  6
Continuous
 62
     1
370
    25
100
AcDbLine
 10
104.5804557792
 20
-63.1773861797
 30
0.0
 11
167.5804557792
 21
-63.1773861797
 31
0.0
  0
LINE
  5
DA
330
1F
100
AcDbEntity
  8
0
  6
Continuous
 62
     7
370
    25
100
AcDbLine
 10
376.2668356726
 20
-27.9565223089
 30
0.0
 11
315.0332518195
 21
7.3928732165
 31
0.0
  0
LINE
  5
DB
330
1F
100
AcDbEntity
  8
0
  6
Continuous
 62
     7
370
    25
100
AcDbLine
 10
260.0377215245
 20
-87.8725016454
 30
0.0
 11
321.2713053776
 21
-123.2218971708
 31
0.0
  0
SPLINE
  5
DC
330
1F
100
AcDbEntity
  8
0
  6
Continuous
 62
     7
370
    25
100
AcDbSpline
210
0.0
220
0.0
230
1.0
 70
     8
 71
     3
 72
    13
 73
     9
 74
     0
 42
0.00000001
 43
0.00000001
 40
0.0
 40
0.0
 40
0.0
 40
0.0
 40
0.1364900052105789
 40
0.3524025981662894
 40
0.5672547356076691
 40
0.7812114535564512
 40
0.9945342086993053
 40
1.0
 40
1.0
 40
1.0
 40
1.0
 10
382.3303221753787
 20
-33.36996828261953
 30
0.0
 10
382.0915630362242
 20
-33.05433959214889
 30
0.0
 10
381.4751124701609
 20
-32.23942006448041
 30
0.0
 10
380.3655096617446
 20
-31.06672567153793
 30
0.0
 10
379.0251942988044
 20
-29.8388213600085
 30
0.0
 10
377.5842302169095
 20
-28.77030857677655
 30
0.0
 10
376.5788450686813
 20
-28.09929081273095
 30
0.0
 10
376.0339538123246
 20
-27.82572043159524
 30
0.0
 10
376.0203412995253
 20
-27.81888607653577
 30
0.0
  0
SPLINE
  5
DD
330
1F
100
AcDbEntity
  8
0
  6
Continuous
 62
     7
370
    25
100
AcDbSpline
210
0.0
220
0.0
230
1.0
 70
     8
 71
     3
 72
    12
 73
     8
 74
     0
 42
0.00000001
 43
0.00000001
 40
0.0
 40
0.0
 40
0.0
 40
0.0
 40
0.1745040964025848
 40
0.4116750231816898
 40
0.6491114708620349
 40
0.8871805894703507
 40
0.9999999999999999
 40
0.9999999999999999
 40
0.9999999999999999
 40
0.9999999999999999
 10
321.6265926908629
 20
-123.4042472539102
 30
0.0
 10
322.0100644148073
 20
-123.612821909448
 30
0.0
 10
322.9147178533156
 20
-124.104873259094
 30
0.0
 10
324.4288689359856
 20
-124.7165622869762
 30
0.0
 10
326.1513932503836
 20
-125.252875033943
 30
0.0
 10
327.6169514100955
 20
-125.5955348166865
 30
0.0
 10
328.5243557023468
 20
-125.7061051914154
 30
0.0
 10
328.816108805862
 20
-125.7416563236499
 30
0.0
  0
LINE
  5
DE
330
1F
100
AcDbEntity
  8
0
  6
Continuous
 62
     7
370
    25
100
AcDbLine
 10
331.2699556709
 20
-125.9614224973
 30
0.0
 11
377.9729659082
 21
-127.3536902058
 31
0.0
  0
LINE
  5
DF
330
1F
100
AcDbEntity
  8
0
  6
Continuous
 62
     7
370
    25
100
AcDbLine
 10
408.2003176009
 20
-74.9927078743
 30
0.0
 11
383.6393433308
 21
-35.2451530125
 31
0.0
  0
LINE
  5
E0
330
1F
100
AcDbEntity
  8
0
  6
Continuous
 62
     7
370
    25
100
AcDbLine
 10
451.7766307602
 20
-98.6821267909
 30
0.0
 11
406.7914765982
 21
-72.7127500669
 31
0.0
  0
LINE
  5
E1
330
1F
100
AcDbEntity
  8
0
  6
Continuous
 62
     7
370
    25
100
AcDbLine
 10
375.2940365202
 20
-127.2738283969
 30
0.0
 11
420.2791906821
 21
-153.2432051208
 31
0.0
  0
LWPOLYLINE
  5
E2
330
1F
100
AcDbEntity
  8
0
  6
Continuous
 62
     7
370
    25
100
AcDbPolyline
 90
      111
 70
   128
 43
0.0
 10
248.6446137067
 20
-62.6910372896
 10
248.7080406787
 20
-60.0905777596
 10
248.8981147092
 20
-57.4253691649
 10
249.2142158162
 20
-54.7041048621
 10
249.6553129435
 20
-51.9356610496
 10
250.2199673241
 20
-49.1290678157
 10
250.9063371726
 20
-46.2934796842
 10
251.7121836934
 20
-43.4381457543
 10
252.6348783825
 20
-40.5723795316
 10
253.6714116017
 20
-37.70552855
 10
254.8184023951
 20
-34.8469438815
 10
256.072109517
 20
-32.0059496351
 10
257.4284436355
 20
-29.1918125435
 10
258.8829806705
 20
-26.413711737
 10
260.4309762247
 20
-23.680708803
 10
262.0673810582
 20
-21.001718229
 10
263.7868575586
 20
-18.3854783254
 10
265.5837971509
 20
-15.8405227231
 10
267.4523385918
 20
-13.3751525381
 10
269.3863870874
 20
-10.9974092956
 10
271.3796341735
 20
-8.7150486999
 10
273.4255782924
 20
-6.5355153368
 10
275.5175459996
 20
-4.4659183911
 10
277.6487137314
 20
-2.5130084579
 10
279.8121300615
 20
-0.6831555235
 10
282.0007383756
 20
1.0176718122
 10
284.2073998882
 20
2.583925804
 10
286.4249169282
 20
4.0104976568
 10
288.6460564158
 20
5.2927341898
 10
290.8635734557
 20
6.426453014
 10
293.0702349683
 20
7.4079561742
 10
295.2588432824
 20
8.234042211
 10
297.4222596125
 20
8.9020166036
 10
299.5534273443
 20
9.4097005583
 10
301.6453950516
 20
9.7554381156
 10
303.6913391705
 20
9.9381015514
 10
305.6845862566
 20
9.9570950556
 10
307.6186347522
 20
9.8123566753
 10
309.487176193
 20
9.504358517
 10
311.2841157854
 20
9.0341052067
 10
313.0035922858
 20
8.4031306129
 10
314.6399971193
 20
7.6134928436
 10
316.1879926734
 20
6.6677675332
 10
317.6425297085
 20
5.5690394409
 10
318.9988638269
 20
4.3208923895
 10
320.2525709489
 20
2.9273975752
 10
321.3995617422
 20
1.3931002884
 10
322.4360949614
 20
-0.276994912
 10
323.3587896506
 20
-2.0774405226
 10
324.1646361713
 20
-4.002363864
 10
324.8510060199
 20
-6.0454862364
 10
325.4156604004
 20
-8.2001433994
 10
325.8567575278
 20
-10.459307309
 10
326.1728586347
 20
-12.8156090422
 10
326.3629326652
 20
-15.2613628325
 10
326.4263596372
 20
-17.7885911393
 10
326.3629326652
 20
-20.3890506693
 10
326.1728586347
 20
-23.054259264
 10
325.8567575278
 20
-25.7755235668
 10
325.4156604004
 20
-28.5439673793
 10
324.8510060199
 20
-31.3505606132
 10
324.1646361713
 20
-34.1861487447
 10
323.3587896506
 20
-37.0414826746
 10
322.4360949614
 20
-39.9072488973
 10
321.3995617422
 20
-42.7740998789
 10
320.2525709489
 20
-45.6326845474
 10
318.9988638269
 20
-48.4736787939
 10
317.6425297085
 20
-51.2878158854
 10
316.1879926734
 20
-54.0659166919
 10
314.6399971193
 20
-56.7989196259
 10
313.0035922858
 20
-59.4779101999
 10
311.2841157854
 20
-62.0941501035
 10
309.487176193
 20
-64.6391057059
 10
307.6186347522
 20
-67.1044758908
 10
305.6845862566
 20
-69.4822191333
 10
303.6913391705
 20
-71.764579729
 10
301.6453950516
 20
-73.9441130921
 10
299.5534273443
 20
-76.0137100378
 10
297.4222596125
 20
-77.966619971
 10
295.2588432824
 20
-79.7964729054
 10
293.0702349683
 20
-81.4973002411
 10
290.8635734557
 20
-83.0635542329
 10
288.6460564158
 20
-84.4901260857
 10
286.4249169282
 20
-85.7723626187
 10
284.2073998882
 20
-86.9060814429
 10
282.0007383756
 20
-87.8875846031
 10
279.8121300615
 20
-88.7136706399
 10
277.6487137314
 20
-89.3816450325
 10
275.5175459996
 20
-89.8893289872
 10
273.4255782924
 20
-90.2350665445
 10
271.3796341735
 20
-90.4177299803
 10
269.3863870874
 20
-90.4367234845
 10
267.4523385918
 20
-90.2919851042
 10
265.5837971509
 20
-89.9839869459
 10
263.7868575586
 20
-89.5137336356
 10
262.0673810582
 20
-88.8827590418
 10
260.4309762247
 20
-88.0931212726
 10
258.8829806705
 20
-87.1473959621
 10
257.4284436355
 20
-86.0486678698
 10
256.072109517
 20
-84.8005208184
 10
254.8184023951
 20
-83.4070260041
 10
253.6714116017
 20
-81.8727287173
 10
252.6348783825
 20
-80.2026335169
 10
251.7121836934
 20
-78.4021879064
 10
250.9063371726
 20
-76.4772645649
 10
250.2199673241
 20
-74.4341421925
 10
249.6553129435
 20
-72.2794850295
 10
249.2142158162
 20
-70.0203211199
 10
248.8981147092
 20
-67.6640193867
 10
248.7080406787
 20
-65.2182655965
 10
248.6446137067
 20
-62.6910372896
  0
LWPOLYLINE
  5
E3
330
1F
100
AcDbEntity
  8
0
  6
Continuous
 62
     7
370
    25
100
AcDbPolyline
 90
      104
 70
   128
 43
0.0
 10
253.3115184625
 20
-59.9968905206
 10
253.3751761673
 20
-57.5508104395
 10
253.5659124709
 20
-55.0403323154
 10
253.8830178215
 20
-52.4747952919
 10
254.3253125666
 20
-49.8637433352
 10
254.8911513407
 20
-47.21688973
 10
255.5784291862
 20
-44.5440809457
 10
256.3845893846
 20
-41.8552600065
 10
257.3066329668
 20
-39.1604295027
 10
258.3411298703
 20
-36.4696143811
 10
259.4842316985
 20
-33.7928246504
 10
260.7316860377
 20
-31.1400181443
 10
262.0788522757
 20
-28.5210634773
 10
263.5207188657
 20
-25.9457033327
 10
265.0519219692
 20
-23.4235182195
 10
266.6667654101
 20
-20.9638908318
 10
268.3592418648
 20
-18.5759711452
 10
270.1230552096
 20
-16.2686423777
 10
271.9516439432
 20
-14.0504879438
 10
273.8382055952
 20
-11.9297595238
 10
275.7757220325
 20
-9.9143463667
 10
277.7569855667
 20
-8.0117459417
 10
279.7746257672
 20
-6.2290360475
 10
281.82113688
 20
-4.5728484818
 10
283.8889057493
 20
-3.0493443713
 10
285.9702401392
 20
-1.6641912513
 10
288.057397349
 20
-0.4225419824
 10
290.1426130168
 20
0.6709844186
 10
292.2181300034
 20
1.6123199616
 10
294.2762272492
 20
2.3979628167
 10
296.3092484973
 20
3.0249903408
 10
298.3096307752
 20
3.4910699503
 10
300.2699325294
 20
3.7944677984
 10
302.1828613086
 20
3.9340552252
 10
304.041300892
 20
3.9093129564
 10
305.8383377625
 20
3.7203330348
 10
307.5672868248
 20
3.3678184781
 10
309.2217162748
 20
2.8530806637
 10
310.7954715264
 20
2.1780344499
 10
312.2826981066
 20
1.3451910531
 10
313.6778634348
 20
0.3576487054
 10
314.9757774044
 20
-0.7809188708
 10
316.1716116903
 20
-2.0662761294
 10
317.2609177102
 20
-3.4936414569
 10
318.2396431743
 20
-5.0577049605
 10
319.1041471595
 20
-6.7526482214
 10
319.8512136544
 20
-8.5721659391
 10
320.4780635223
 20
-10.5094893884
 10
320.9823648406
 20
-12.5574115988
 10
321.3622415754
 20
-14.7083141651
 10
321.6162805602
 20
-16.9541955884
 10
321.7435367533
 20
-19.2867010425
 10
321.7435367533
 20
-21.6971534537
 10
321.6162805602
 20
-24.1765857809
 10
321.3622415754
 20
-26.7157743729
 10
320.9823648406
 20
-29.3052732813
 10
320.4780635223
 20
-31.9354494003
 10
319.8512136544
 20
-34.5965183017
 10
319.1041471595
 20
-37.2785806346
 10
318.2396431743
 20
-39.9716589509
 10
317.2609177102
 20
-42.6657348224
 10
316.1716116903
 20
-45.3507861099
 10
314.9757774044
 20
-48.0168242463
 10
313.6778634348
 20
-50.6539313946
 10
312.2826981066
 20
-53.2522973429
 10
310.7954715264
 20
-55.8022559993
 10
309.2217162748
 20
-58.2943213502
 10
307.5672868248
 20
-60.7192227487
 10
305.8383377625
 20
-63.0679394023
 10
304.041300892
 20
-65.3317339309
 10
302.1828613086
 20
-67.5021848701
 10
300.2699325294
 20
-69.5712179999
 10
298.3096307752
 20
-71.5311363811
 10
296.3092484973
 20
-73.3746489886
 10
294.2762272492
 20
-75.0948978345
 10
292.2181300034
 20
-76.68548348
 10
290.1426130168
 20
-78.140488842
 10
288.057397349
 20
-79.4545012052
 10
285.9702401392
 20
-80.6226323571
 10
283.8889057493
 20
-81.6405367731
 10
281.82113688
 20
-82.504427782
 10
279.7746257672
 20
-83.2110916525
 10
277.7569855667
 20
-83.7578995486
 10
275.7757220325
 20
-84.142817309
 10
273.8382055952
 20
-84.3644130143
 10
271.9516439432
 20
-84.4218623139
 10
270.1230552096
 20
-84.3149514927
 10
268.3592418648
 20
-84.044078266
 10
266.6667654101
 20
-83.6102502999
 10
265.0519219692
 20
-83.015081463
 10
263.5207188657
 20
-82.2607858225
 10
262.0788522757
 20
-81.3501694076
 10
260.7316860377
 20
-80.2866197713
 10
259.4842316985
 20
-79.074093388
 10
258.3411298703
 20
-77.7171009356
 10
257.3066329668
 20
-76.220690515
 10
256.3845893846
 20
-74.5904288714
 10
255.5784291862
 20
-72.8323806851
 10
254.8911513407
 20
-70.9530860108
 10
254.3253125666
 20
-68.9595359482
 10
253.8830178215
 20
-66.8591466345
 10
253.5659124709
 20
-64.6597316557
 10
253.3751761673
 20
-62.3694729802
 10
253.3115184625
 20
-59.9968905206
  0
LINE
  5
E4
330
1F
100
AcDbEntity
  8
0
  6
Continuous
 62
     7
370
    25
100
AcDbLine
 10
321.5953667239
 20
-123.4046161609
 30
0.0
 11
321.2713053776
 21
-123.2218971708
 31
0.0
  0
ARC
  5
E5
330
1F
100
AcDbEntity
  8
0
  6
Continuous
 62
     7
370
    25
100
AcDbCircle
 10
363.6608808837
 20
-47.6404356907
 30
0.0
 40
23.51136281333011
100
AcDbArc
 50
25.0430506698
 51
37.1046044232
  0
ARC
  5
E6
330
1F
100
AcDbEntity
  8
0
  6
Continuous
 62
     7
370
    25
100
AcDbCircle
 10
332.0250501661
 20
-102.3827334806
 30
0.0
 40
23.59077265215641
100
AcDbArc
 50
262.4906542781
 51
275.8396156706
  0
LWPOLYLINE
  5
E7
330
1F
100
AcDbEntity
  8
0
  6
Continuous
 62
     7
370
    25
100
AcDbPolyline
 90
       43
 70
   128
 43
0.0
 10
451.7766307602
 20
-98.6821267909
 10
452.7858636609
 20
-99.3447028525
 10
453.8475678708
 20
-100.243847411
 10
454.8072026984
 20
-101.2903070329
 10
455.6592714421
 20
-102.4780876925
 10
456.3988935295
 20
-103.8003858896
 10
457.0218324721
 20
-105.2496276199
 10
457.5245201321
 20
-106.8175117581
 10
457.9040771601
 20
-108.4950576057
 10
458.1583294878
 20
-110.2726563321
 10
458.285820781
 20
-112.1401260128
 10
458.285820781
 20
-114.0867699504
 10
458.1583294878
 20
-116.101437945
 10
457.9040771601
 20
-118.1725901605
 10
457.5245201321
 20
-120.2883632248
 10
457.0218324721
 20
-122.4366381812
 10
456.3988935295
 20
-124.6051099054
 10
455.6592714421
 20
-126.7813575877
 10
454.8072026984
 20
-128.9529158785
 10
453.8475678708
 20
-131.1073462886
 10
452.7858636609
 20
-133.2323084355
 10
451.628171414
 20
-135.3156307287
 10
450.3811222867
 20
-137.3453800867
 10
449.0518592634
 20
-139.309930289
 10
447.6479962422
 20
-141.1980285698
 10
446.1775744235
 20
-142.9988600733
 10
444.6490162502
 20
-144.7021097997
 10
443.0710771652
 20
-146.2980216888
 10
441.4527954606
 20
-147.7774545018
 10
439.8034405075
 20
-149.1319341816
 10
438.1324596617
 20
-150.3537023911
 10
436.4494241502
 20
-151.4357609528
 10
434.7639742479
 20
-152.3719119332
 10
433.0857640593
 20
-153.1567931442
 10
431.4244062203
 20
-153.7859088573
 10
429.7894168382
 20
-154.2556555548
 10
428.1901609841
 20
-154.56334257
 10
426.6357990507
 20
-154.7072074997
 10
425.1352342824
 20
-154.6864262984
 10
423.6970617783
 20
-154.5011179992
 10
422.3295192603
 20
-154.152344031
 10
421.0404398881
 20
-153.6421021397
 10
420.2791906821
 20
-153.2432051208
  0
LWPOLYLINE
  5
E8
330
1F
100
AcDbEntity
  8
0
  6
Continuous
 62
     1
370
    25
100
AcDbPolyline
 90
       57
 70
   128
 43
0.0
 10
376.2668356726
 20
-27.9565223089
 10
377.4215765265
 20
-28.6816279922
 10
378.8761135616
 20
-29.7803560845
 10
380.2324476801
 20
-31.0285031359
 10
381.486154802
 20
-32.4219979502
 10
382.6331455954
 20
-33.956295237
 10
383.6696788146
 20
-35.6263904374
 10
384.5923735037
 20
-37.4268360479
 10
385.3982200245
 20
-39.3517593894
 10
386.084589873
 20
-41.3948817618
 10
386.6492442536
 20
-43.5495389248
 10
387.0903413809
 20
-45.8087028344
 10
387.4064424879
 20
-48.1650045676
 10
387.5965165183
 20
-50.6107583578
 10
387.6599434904
 20
-53.1379866647
 10
387.5965165183
 20
-55.7384461947
 10
387.4064424879
 20
-58.4036547894
 10
387.0903413809
 20
-61.1249190922
 10
386.6492442536
 20
-63.8933629047
 10
386.084589873
 20
-66.6999561386
 10
385.3982200245
 20
-69.5355442701
 10
384.5923735037
 20
-72.3908782
 10
383.6696788146
 20
-75.2566444227
 10
382.6331455954
 20
-78.1234954043
 10
381.486154802
 20
-80.9820800728
 10
380.2324476801
 20
-83.8230743192
 10
378.8761135616
 20
-86.6372114108
 10
377.4215765265
 20
-89.4153122173
 10
375.8735809724
 20
-92.1483151513
 10
374.2371761389
 20
-94.8273057253
 10
372.5176996385
 20
-97.4435456289
 10
370.7207600462
 20
-99.9885012312
 10
368.8522186053
 20
-102.4538714162
 10
366.9181701097
 20
-104.8316146587
 10
364.9249230236
 20
-107.1139752544
 10
362.8789789047
 20
-109.2935086175
 10
360.7870111974
 20
-111.3631055632
 10
358.6558434657
 20
-113.3160154964
 10
356.4924271355
 20
-115.1458684308
 10
354.3038188215
 20
-116.8466957665
 10
352.0971573089
 20
-118.4129497583
 10
349.8796402689
 20
-119.8395216111
 10
347.6585007813
 20
-121.1217581441
 10
345.4409837414
 20
-122.2554769683
 10
343.2343222287
 20
-123.2369801285
 10
341.0457139147
 20
-124.0630661653
 10
338.8822975845
 20
-124.7310405579
 10
336.7511298528
 20
-125.2387245126
 10
334.6591621455
 20
-125.5844620699
 10
332.6132180266
 20
-125.7671255057
 10
330.6199709405
 20
-125.7861190099
 10
328.6859224449
 20
-125.6413806296
 10
326.8173810041
 20
-125.3333824713
 10
325.0204414117
 20
-124.863129161
 10
323.3009649113
 20
-124.2321545672
 10
321.6645600778
 20
-123.4425167979
 10
321.5953667239
 20
-123.4046161609
  0
LWPOLYLINE
  5
E9
330
1F
100
AcDbEntity
  8
0
  6
Continuous
 62
     1
370
    25
100
AcDbPolyline
 90
       44
 70
   128
 43
0.0
 10
384.9619401507
 20
-37.6880964963
 10
385.0381288957
 20
-37.8508513288
 10
385.8416926625
 20
-39.7703218621
 10
386.5261182034
 20
-41.8076565991
 10
387.0891730646
 20
-43.9562101776
 10
387.5290206783
 20
-46.2089744622
 10
387.8442263529
 20
-48.5586014042
 10
388.033761953
 20
-50.9974270088
 10
388.0970092528
 20
-53.5174963339
 10
388.033761953
 20
-56.110589437
 10
387.8442263529
 20
-58.7682481875
 10
387.5290206783
 20
-61.4818038549
 10
387.0891730646
 20
-64.2424053847
 10
386.5261182034
 20
-67.0410482684
 10
385.8416926625
 20
-69.8686039147
 10
385.0381288957
 20
-72.7158494247
 10
384.1180479612
 20
-75.5734976755
 10
383.0844509715
 20
-78.4322276124
 10
381.9407093054
 20
-81.2827146525
 10
380.6905536103
 20
-84.1156610997
 10
379.3380616343
 20
-86.9218264713
 10
377.8876449252
 20
-89.6920576393
 10
376.3440344406
 20
-92.4173186853
 10
374.7122651173
 20
-95.0887203744
 10
372.9976594475
 20
-97.6975491494
 10
371.2058101186
 20
-100.2352955531
 10
369.3425617707
 20
-102.6936819842
 10
367.4139919325
 20
-105.0646896973
 10
365.426391198
 20
-107.3405849578
 10
363.3862427077
 20
-109.5139442686
 10
361.300201002
 20
-111.5776785834
 10
359.1750703152
 20
-113.5250564296
 10
357.017782382
 20
-115.3497258656
 10
354.8353738273
 20
-117.0457351989
 10
352.634963214
 20
-118.6075523997
 10
350.4237278242
 20
-120.0300831447
 10
348.2088802482
 20
-121.3086874345
 10
345.9976448585
 20
-122.4391947275
 10
343.7972342452
 20
-123.417917544
 10
341.6148256904
 20
-124.2416634935
 10
339.4575377572
 20
-124.907745688
 10
337.3324070704
 20
-125.4139915058
 10
335.2463653647
 20
-125.7587496784
 10
334.4252734486
 20
-125.8510841367
  0
LWPOLYLINE
  5
EA
330
1F
100
AcDbEntity
  8
0
  6
Continuous
 62
     1
370
    25
100
AcDbPolyline
 90
       35
 70
   128
 43
0.0
 10
408.2003176009
 20
-74.9927078743
 10
408.860967785
 20
-76.1895444505
 10
409.4869878177
 20
-77.6459542097
 10
409.9921617984
 20
-79.2215931887
 10
410.3735961363
 20
-80.9074362699
 10
410.6291060099
 20
-82.6938270969
 10
410.757227882
 20
-84.5705333848
 10
410.757227882
 20
-86.52680553
 10
410.6291060099
 20
-88.5514381827
 10
410.3735961363
 20
-90.6328344305
 10
409.9921617984
 20
-92.7590722241
 10
409.4869878177
 20
-94.9179726661
 10
408.860967785
 20
-97.0971697701
 10
408.1176874863
 20
-99.2841812926
 10
407.2614043639
 20
-101.4664802296
 10
406.29702313
 20
-103.6315665703
 10
405.2300676729
 20
-105.7670388964
 10
404.0666494168
 20
-107.8606654157
 10
402.8134323163
 20
-109.9004540251
 10
401.4775946853
 20
-111.8747210002
 10
400.0667880807
 20
-113.7721579185
 10
398.5890934752
 20
-115.5818964332
 10
397.0529749696
 20
-117.293570526
 10
395.4672313115
 20
-118.8973758827
 10
393.840945497
 20
-120.3841260513
 10
392.183432744
 20
-121.7453050617
 10
390.5041871355
 20
-122.9731162037
 10
388.8128272382
 20
-124.0605266863
 10
387.1190410084
 20
-125.0013079206
 10
385.4325303003
 20
-125.790071197
 10
383.7629552945
 20
-126.422298551
 10
382.1198791654
 20
-126.8943686413
 10
380.5127133043
 20
-127.2035774934
 10
378.9506634117
 20
-127.3481539868
 10
377.9729659082
 20
-127.3536902058
  0
LWPOLYLINE
  5
EB
330
1F
100
AcDbEntity
  8
0
  6
Continuous
 62
     1
370
    25
100
AcDbPolyline
 90
       39
 70
   128
 43
0.0
 10
407.4718579657
 20
-73.8138259213
 10
407.715754469
 20
-74.1049926258
 10
408.5678232127
 20
-75.2927732853
 10
409.3074453001
 20
-76.6150714824
 10
409.9303842427
 20
-78.0643132128
 10
410.4330719027
 20
-79.6321973509
 10
410.8126289307
 20
-81.3097431986
 10
411.0668812584
 20
-83.087341925
 10
411.1943725516
 20
-84.9548116056
 10
411.1943725516
 20
-86.9014555433
 10
411.0668812584
 20
-88.9161235378
 10
410.8126289307
 20
-90.9872757534
 10
410.4330719027
 20
-93.1030488176
 10
409.9303842427
 20
-95.251323774
 10
409.3074453001
 20
-97.4197954983
 10
408.5678232127
 20
-99.5960431806
 10
407.715754469
 20
-101.7676014714
 10
406.7561196414
 20
-103.9220318814
 10
405.6944154315
 20
-106.0469940284
 10
404.5367231846
 20
-108.1303163216
 10
403.2896740573
 20
-110.1600656796
 10
401.960411034
 20
-112.1246158818
 10
400.5565480128
 20
-114.0127141627
 10
399.0861261941
 20
-115.8135456662
 10
397.5575680208
 20
-117.5167953926
 10
395.9796289358
 20
-119.1127072817
 10
394.3613472312
 20
-120.5921400947
 10
392.7119922781
 20
-121.9466197744
 10
391.0410114323
 20
-123.168387984
 10
389.3579759208
 20
-124.2504465456
 10
387.6725260185
 20
-125.186597526
 10
385.9943158299
 20
-125.971478737
 10
384.3329579909
 20
-126.6005944502
 10
382.6979686088
 20
-127.0703411476
 10
381.0987127547
 20
-127.3780281629
 10
379.5443508213
 20
-127.5218930925
 10
378.043786053
 20
-127.5011118913
 10
376.6056135489
 20
-127.315803592
 10
376.5877904902
 20
-127.3123966148
  0
ENDSEC
  0
SECTION
  2
OBJECTS
  0
DICTIONARY
  5
C
330
0
100
AcDbDictionary
281
     1
  3
ACAD_GROUP
350
D
  3
ACAD_LAYOUT
350
1A
  3
ACAD_MLINESTYLE
350
17
  3
ACAD_PLOTSETTINGS
350
19
  3
ACAD_PLOTSTYLENAME
350
E
  3
ACAD_SCALELIST
350
47
  3
DWGPROPS
350
EC
  0
DICTIONARY
  5
D
102
{ACAD_REACTORS
330
C
102
}
330
C
100
AcDbDictionary
281
     1
  0
DICTIONARY
  5
1A
102
{ACAD_REACTORS
330
C
102
}
330
C
100
AcDbDictionary
281
     1
  3
Layout1
350
1E
  3
Layout2
350
26
  3
Model
350
22
  0
DICTIONARY
  5
17
102
{ACAD_REACTORS
330
C
102
}
330
C
100
AcDbDictionary
281
     1
  3
Standard
350
18
  0
DICTIONARY
  5
19
102
{ACAD_REACTORS
330
C
102
}
330
C
100
AcDbDictionary
281
     1
  0
ACDBDICTIONARYWDFLT
  5
E
102
{ACAD_REACTORS
330
C
102
}
330
C
100
AcDbDictionary
281
     1
  3
Normal
350
F
100
AcDbDictionaryWithDefault
340
F
  0
DICTIONARY
  5
47
102
{ACAD_REACTORS
330
C
102
}
330
C
100
AcDbDictionary
281
     1
  3
A0
350
48
  3
A1
350
49
  3
A2
350
4A
  3
A3
350
4B
  3
A4
350
4C
  3
A5
350
4D
  3
A6
350
4E
  3
A7
350
4F
  3
A8
350
50
  3
A9
350
51
  3
B0
350
52
  3
B1
350
53
  3
B2
350
54
  3
B3
350
55
  3
B4
350
56
  3
B5
350
57
  3
B6
350
58
  3
B7
350
59
  3
B8
350
5A
  3
B9
350
5B
  3
C0
350
5C
  3
C1
350
5D
  3
C2
350
5E
  3
C3
350
5F
  3
C4
350
60
  3
C5
350
61
  3
C6
350
62
  3
C7
350
63
  3
C8
350
64
  3
C9
350
65
  3
D0
350
66
  3
D1
350
67
  3
D2
350
68
  0
XRECORD
  5
EC
102
{ACAD_REACTORS
330
C
102
}
330
C
100
AcDbXrecord
280
     1
  1
DWGPROPS COOKIE
  2

  3

  4

  6

  7

  8
b.kav
  9

300
=
301
=
302
=
303
=
304
=
305
=
306
=
307
=
308
=
309
=
 40
0.0
 41
2460643.421924178
 42
2460643.42192441
  1

 90
        0
  0
LAYOUT
  5
1E
102
{ACAD_REACTORS
330
1A
102
}
330
1A
100
AcDbPlotSettings
  1

  2
none_device
  4

  6

 40
0.0
 41
0.0
 42
0.0
 43
0.0
 44
0.0
 45
0.0
 46
0.0
 47
0.0
 48
0.0
 49
0.0
140
0.0
141
0.0
142
1.0
143
1.0
 70
   688
 72
     1
 73
     0
 74
     5
  7

 75
    16
147
1.0
148
0.0
149
0.0
100
AcDbLayout
  1
Layout1
 70
     1
 71
     1
 10
0.0
 20
0.0
 11
420.0
 21
297.0
 12
0.0
 22
0.0
 32
0.0
 14
1.0000000000E+20
 24
1.0000000000E+20
 34
1.0000000000E+20
 15
-1.0000000000E+20
 25
-1.0000000000E+20
 35
-1.0000000000E+20
146
0.0
 13
0.0
 23
0.0
 33
0.0
 16
1.0
 26
0.0
 36
0.0
 17
0.0
 27
1.0
 37
0.0
 76
     0
330
1B
  0
LAYOUT
  5
26
102
{ACAD_REACTORS
330
1A
102
}
330
1A
100
AcDbPlotSettings
  1

  2
none_device
  4

  6

 40
0.0
 41
0.0
 42
0.0
 43
0.0
 44
0.0
 45
0.0
 46
0.0
 47
0.0
 48
0.0
 49
0.0
140
0.0
141
0.0
142
1.0
143
1.0
 70
   688
 72
     1
 73
     0
 74
     5
  7

 75
    16
147
1.0
148
0.0
149
0.0
100
AcDbLayout
  1
Layout2
 70
     1
 71
     2
 10
0.0
 20
0.0
 11
0.0
 21
0.0
 12
0.0
 22
0.0
 32
0.0
 14
0.0
 24
0.0
 34
0.0
 15
0.0
 25
0.0
 35
0.0
146
0.0
 13
0.0
 23
0.0
 33
0.0
 16
1.0
 26
0.0
 36
0.0
 17
0.0
 27
1.0
 37
0.0
 76
     0
330
23
  0
LAYOUT
  5
22
102
{ACAD_REACTORS
330
1A
102
}
330
1A
100
AcDbPlotSettings
  1

  2
none_device
  4
Letter_(8.50_x_11.00_Inches)
  6

 40
6.35
 41
6.35
 42
6.35000508
 43
6.35000508
 44
215.9
 45
279.4
 46
0.0
 47
0.0
 48
0.0
 49
0.0
140
0.0
141
0.0
142
1.0
143
1.0
 70
  1712
 72
     1
 73
     0
 74
     0
  7

 75
     0
147
1.0
148
0.0
149
0.0
100
AcDbLayout
  1
Model
 70
     1
 71
     0
 10
0.0
 20
0.0
 11
279.4
 21
215.9
 12
0.0
 22
0.0
 32
0.0
 14
0.0
 24
0.0
 34
0.0
 15
279.4
 25
215.9
 35
0.0
146
0.0
 13
0.0
 23
0.0
 33
0.0
 16
1.0
 26
0.0
 36
0.0
 17
0.0
 27
1.0
 37
0.0
 76
     0
330
1F
331
29
  0
MLINESTYLE
  5
18
102
{ACAD_REACTORS
330
17
102
}
330
17
100
AcDbMlineStyle
  2
Standard
 70
     0
  3

 62
   256
 51
90.0
 52
90.0
 71
     2
 49
0.5
 62
   256
  6
BYLAYER
 49
-0.5
 62
   256
  6
BYLAYER
  0
ACDBPLACEHOLDER
  5
F
102
{ACAD_REACTORS
330
E
102
}
330
E
  0
SCALE
  5
48
102
{ACAD_REACTORS
330
47
102
}
330
47
100
AcDbScale
 70
     0
300
1:1
140
1.0
141
1.0
290
     1
  0
SCALE
  5
49
102
{ACAD_REACTORS
330
47
102
}
330
47
100
AcDbScale
 70
     0
300
1:2
140
1.0
141
2.0
290
     0
  0
SCALE
  5
4A
102
{ACAD_REACTORS
330
47
102
}
330
47
100
AcDbScale
 70
     0
300
1:4
140
1.0
141
4.0
290
     0
  0
SCALE
  5
4B
102
{ACAD_REACTORS
330
47
102
}
330
47
100
AcDbScale
 70
     0
300
1:5
140
1.0
141
5.0
290
     0
  0
SCALE
  5
4C
102
{ACAD_REACTORS
330
47
102
}
330
47
100
AcDbScale
 70
     0
300
1:8
140
1.0
141
8.0
290
     0
  0
SCALE
  5
4D
102
{ACAD_REACTORS
330
47
102
}
330
47
100
AcDbScale
 70
     0
300
1:10
140
1.0
141
10.0
290
     0
  0
SCALE
  5
4E
102
{ACAD_REACTORS
330
47
102
}
330
47
100
AcDbScale
 70
     0
300
1:16
140
1.0
141
16.0
290
     0
  0
SCALE
  5
4F
102
{ACAD_REACTORS
330
47
102
}
330
47
100
AcDbScale
 70
     0
300
1:20
140
1.0
141
20.0
290
     0
  0
SCALE
  5
50
102
{ACAD_REACTORS
330
47
102
}
330
47
100
AcDbScale
 70
     0
300
1:30
140
1.0
141
30.0
290
     0
  0
SCALE
  5
51
102
{ACAD_REACTORS
330
47
102
}
330
47
100
AcDbScale
 70
     0
300
1:40
140
1.0
141
40.0
290
     0
  0
SCALE
  5
52
102
{ACAD_REACTORS
330
47
102
}
330
47
100
AcDbScale
 70
     0
300
1:50
140
1.0
141
50.0
290
     0
  0
SCALE
  5
53
102
{ACAD_REACTORS
330
47
102
}
330
47
100
AcDbScale
 70
     0
300
1:100
140
1.0
141
100.0
290
     0
  0
SCALE
  5
54
102
{ACAD_REACTORS
330
47
102
}
330
47
100
AcDbScale
 70
     0
300
2:1
140
2.0
141
1.0
290
     0
  0
SCALE
  5
55
102
{ACAD_REACTORS
330
47
102
}
330
47
100
AcDbScale
 70
     0
300
4:1
140
4.0
141
1.0
290
     0
  0
SCALE
  5
56
102
{ACAD_REACTORS
330
47
102
}
330
47
100
AcDbScale
 70
     0
300
8:1
140
8.0
141
1.0
290
     0
  0
SCALE
  5
57
102
{ACAD_REACTORS
330
47
102
}
330
47
100
AcDbScale
 70
     0
300
10:1
140
10.0
141
1.0
290
     0
  0
SCALE
  5
58
102
{ACAD_REACTORS
330
47
102
}
330
47
100
AcDbScale
 70
     0
300
100:1
140
100.0
141
1.0
290
     0
  0
SCALE
  5
59
102
{ACAD_REACTORS
330
47
102
}
330
47
100
AcDbScale
 70
     0
300
1/128" = 1'-0"
140
0.0078125
141
12.0
290
     0
  0
SCALE
  5
5A
102
{ACAD_REACTORS
330
47
102
}
330
47
100
AcDbScale
 70
     0
300
1/64" = 1'-0"
140
0.015625
141
12.0
290
     0
  0
SCALE
  5
5B
102
{ACAD_REACTORS
330
47
102
}
330
47
100
AcDbScale
 70
     0
300
1/32" = 1'-0"
140
0.03125
141
12.0
290
     0
  0
SCALE
  5
5C
102
{ACAD_REACTORS
330
47
102
}
330
47
100
AcDbScale
 70
     0
300
1/16" = 1'-0"
140
0.0625
141
12.0
290
     0
  0
SCALE
  5
5D
102
{ACAD_REACTORS
330
47
102
}
330
47
100
AcDbScale
 70
     0
300
3/32" = 1'-0"
140
0.09375
141
12.0
290
     0
  0
SCALE
  5
5E
102
{ACAD_REACTORS
330
47
102
}
330
47
100
AcDbScale
 70
     0
300
1/8" = 1'-0"
140
0.125
141
12.0
290
     0
  0
SCALE
  5
5F
102
{ACAD_REACTORS
330
47
102
}
330
47
100
AcDbScale
 70
     0
300
3/16" = 1'-0"
140
0.1875
141
12.0
290
     0
  0
SCALE
  5
60
102
{ACAD_REACTORS
330
47
102
}
330
47
100
AcDbScale
 70
     0
300
1/4" = 1'-0"
140
0.25
141
12.0
290
     0
  0
SCALE
  5
61
102
{ACAD_REACTORS
330
47
102
}
330
47
100
AcDbScale
 70
     0
300
3/8" = 1'-0"
140
0.375
141
12.0
290
     0
  0
SCALE
  5
62
102
{ACAD_REACTORS
330
47
102
}
330
47
100
AcDbScale
 70
     0
300
1/2" = 1'-0"
140
0.5
141
12.0
290
     0
  0
SCALE
  5
63
102
{ACAD_REACTORS
330
47
102
}
330
47
100
AcDbScale
 70
     0
300
3/4" = 1'-0"
140
0.75
141
12.0
290
     0
  0
SCALE
  5
64
102
{ACAD_REACTORS
330
47
102
}
330
47
100
AcDbScale
 70
     0
300
1" = 1'-0"
140
1.0
141
12.0
290
     0
  0
SCALE
  5
65
102
{ACAD_REACTORS
330
47
102
}
330
47
100
AcDbScale
 70
     0
300
1-1/2" = 1'-0"
140
1.5
141
12.0
290
     0
  0
SCALE
  5
66
102
{ACAD_REACTORS
330
47
102
}
330
47
100
AcDbScale
 70
     0
300
3" = 1'-0"
140
3.0
141
12.0
290
     0
  0
SCALE
  5
67
102
{ACAD_REACTORS
330
47
102
}
330
47
100
AcDbScale
 70
     0
300
6" = 1'-0"
140
6.0
141
12.0
290
     0
  0
SCALE
  5
68
102
{ACAD_REACTORS
330
47
102
}
330
47
100
AcDbScale
 70
     0
300
1'-0" = 1'-0"
140
12.0
141
12.0
290
     0
  0
ENDSEC
  0
EOF
